Oops, an error
Loading. Please wait.

We Follow bass

636 views 3 this week
1 commentread comment
1 2 3 4 5
2 more votes to show rating
add to favorites
×
Save as Personal and add changes to this tab that will be seen only by you. Learn more ›
×
You can save this tab as Personal to edit and correct it or add notes. All changes will be seen only by you. Learn more »
launch autoscroll
font size
0
reset
guitar tuner
edit
Autoscroll
slow
fast
+/-
esc
set tempo
stop
Author
Difficulty
Intro/Verse x6

("I took them down... Everywhere for you to find...")
G|------------------------------------------------------------|
D|------------------------------------------------------------|
A|--------444444440000000000000000----------------------------|
E|22222222----------------------------------------------------|

("I guess my time is fading... time is fading now) x4
G|------------------------------------------------------------|
D|------------------------------------------------------------|
A|---4444444400000000--------22222222-------------------------|
E|-------------------22222222---------------------------------|

("Time is fading now! my time is fading now...")
G|------------------------------------------------------------|
D|------------------------------------------------------------|
A|--2-2-2~-----------2-2-2~-----------------------------------|
E|------------------------------------------------------------|

("If i get taken away... that i've been good.")
G|------------------------------------------------------------|
D|------------------------------------------------------------|
A|-----0------------------------------------------------------|
E|------2~-------------0-2~-----------------------------------|


G|------------------------------------------------------------|
D|------------------------------------------------------------|
A|-----5555555522222222--------00000000-----------------------|
E|---------------------22222222-------------------------------|


G|------------------------------------------------------------|
D|------------------------------------------------------------|
A|-----5555555522222222---------22222222----------------------|
E|---------------------00000000-------------------------------|

("If i was taken away...but if i love am i doing so...")
G|------------------------------------------------------------|
D|------------------------------------------------------------|
A|-----5555555522222222--------00000000-----------------------|
E|---------------------22222222-------------------------------|


G|------------------------------------------------------------|
D|------------------------------------------------------------|
A|-----5555555522222222--------22222222-----------------------|
E|---------------------00000000-------------------------------|

("I would've loved some more... I would've loved some more
G|------------------------------------------------------------|
D|------------------------------------------------------------|
A|----2-0----------2-0-2-2-2222-------------------------------|
E|--------2~--------------------------------------------------|

outro x4

G|------------------------------------------------------------|
D|------------------------------------------------------------|
A|--------444444440000000000000000----------------------------|
E|22222222----------------------------------------------------|

End on F# (second fret, E string)
Suggest correction
Creating personal tab
Creating personal tab
You can edit any tab online and save it as your Personal.

You can edit, replace or remove any tab part or add personal notes – all changes will be seen only by you.

Personal tabs can be accessed anytime from any device, even offline.
Learn more »
Give kudos to tab author, rate the tab!
1 2 3 4 5
comments
print report bad tab
1 comment total.
0 reply
paulobruno15a 10 Aug 17, 2016 05:13 PM

Nice tab !

guest
You may want to rate the tab now too:
select rating
Wanna post a correction for this tab? Suggest correction