Oops, an error
Loading. Please wait.

When Youre Around chords

883 views 1 this week
4 commentsread comments
1 2 3 4 5
x 3
add to favorites
×
Save as Personal and add changes to this tab that will be seen only by you. Learn more ›
×
You can save this tab as Personal to edit and correct it or add notes. All changes will be seen only by you. Learn more »
launch autoscroll
font size
0
reset
transpose
0
reset
simplify chords
display chords
guitar tuner
edit
Autoscroll
slow
fast
+/-
esc
set tempo
stop
Author
Strumming
There is no strumming pattern for this song yet. and get +5 IQ

Song: When You’re Around
Artist: From Indian Lakes
Album: Wanderer




Capo on the 1st fret




Intro:

    E

e|----------------------------------------------------------|
B|----------------------------------------------------------|
G|--------1-------------------1---------1-------------------|
D|-----2-----2-------------2---------2-----2----------------|          4 times
A|--------------2-----0h2---------------------2-------------|
E|--0--------------0--------------0--------------0--2b3b2---|


Vers 1:

         E

e|--------------------------------------------------------------|
B|--------------------------------------------------------------|
G|-------------1-------------------1---------1--------------1---|
D|----------2-----2-------------2---------2-----2--------2------|
A|-------------------2-----0h2---------------------2------------|
E|-------0--------------0--------------0--------------0---------|

When you call              my          name


         A               /F#          /G    E

e|-----------------------------------------------------------------------|
B|-------------0---------------------------------------------------------|
G|----------------1-------------1--------1--------1-------------------1--|
D|----------2--------2-------2-----2-----------2-----2-------------2-----|
A|-------0----------------------------------------------2-----0h2--------|
E|------------------------2-----------3------0-------------0-------------|

      I shudder           at          the    sound


         E

e|--------------------------------------------------------------|
B|--------------------------------------------------------------|
G|-------------1-------------------1---------1--------------1---|
D|----------2-----2-------------2---------2-----2--------2------|
A|-------------------2-----0h2---------------------2------------|
E|-------0--------------0--------------0--------------0---------|

When the words             are         familiar


         A               /F#          /G    E

e|-----------------------------------------------------------------------|
B|-------------0---------------------------------------------------------|
G|----------------1-------------1--------1--------1-------------------1--|
D|----------2--------2-------2-----2-----------2-----2-------------2-----|
A|-------0----------------------------------------------2-----0h2--------|
E|------------------------2-----------3------0-------------0-------------|

  I get up            and come        back   down


         E

e|--------------------------------------------------------------|
B|--------------------------------------------------------------|
G|-------------1-------------------1---------1--------------1---|
D|----------2-----2-------------2---------2-----2--------2------|
A|-------------------2-----0h2---------------------2------------|
E|-------0--------------0--------------0--------------0---------|

When you're off for the summer


         A               /F#          /G    E

e|-----------------------------------------------------------------------|
B|-------------0---------------------------------------------------------|
G|----------------1-------------1--------1--------1-------------------1--|
D|----------2--------2-------2-----2-----------2-----2-------------2-----|
A|-------0----------------------------------------------2-----0h2--------|
E|------------------------2-----------3------0-------------0-------------|

We'll get lost among the clouds


         E

e|--------------------------------------------------------------|
B|--------------------------------------------------------------|
G|-------------1-------------------1---------1--------------1---|
D|----------2-----2-------------2---------2-----2--------2------|
A|-------------------2-----0h2---------------------2------------|
E|-------0--------------0--------------0--------------0---------|

We can toss around the river


         A               /F#          /G    E

e|-----------------------------------------------------------------------|
B|-------------0---------------------------------------------------------|
G|----------------1-------------1--------1--------1-------------------1--|
D|----------2--------2-------2-----2-----------2-----2-------------2-----|
A|-------0----------------------------------------------2-----0h2--------|
E|------------------------2-----------3------0-------------0-------------|

I'm in love when you're around


    E

e|---------------------------------------------------------------------------------|
B|---------------------------------------------------------------------------------|
G|--------1---------------------1------------------1-------1-------------------1---|
D|-----2-----2---------------2-----2------------2-------2-----2-------------2------|
A|--------------2---------------------2----0h2-------------------2-----0h2---------|
E|--0--------------0--3--0--------------0-------------0-------------0--------------|



Vers 2: Same as Vers 1

        E
Did you lose your way?
        A            /F#   /G   E
Leaving bread crumbs on    the ground
         E
When the sun starts to flicker
         A        /F#   /G    E
When the moon is comin' around

            E
When you're lost in the garden
            A       /F#      /G   E
When you're wasted away to the ground
       E
Can I waste with you darling?
       A         /F#   /G    E
I'm in love when you're around



Bridge:

    E7                                   A

e|---------------9h7--------------------------------5---------|
B|---9-----9--9-------9-----9--9-----9---5-----7----5-----7---|
G|---7-----7--7-------7-----7--7-----7---6-----6----------6---|
D|------9----------------9--------9---------------------------|
A|---7--------7-------7--------7---------0--0-------0--0------|
E|------------------------------------------------------------|

    E7                                   A

e|---------------9h7--------------------------------5---------|
B|---9-----9--9-------9-----9--9-----9---5-----7----5-----7---|
G|---7-----7--7-------7-----7--7-----7---6-----6----------6---|
D|------9----------------9--------9---------------------------|
A|---7--------7-------7--------7---------0--0-------0--0------|
E|------------------------------------------------------------|


    E7                                   

e|--------------------------------------|
B|---9-----9--9-----9-----9--9----------|
G|---7-----7--7-----7-----7--7----------|
D|------9--------------9----------------|
A|---7--------7-----7--------7---7--6---|
E|--------------------------------------|


C#m              G#
Oh, when lovers cross
        A                E
All the mountains of our doubt
C#m               G#
Wash to break our hearts
          A             /G#    F#
See we're not so fragile       now


Outro: Same as the Vers

            E
When you're laying in the grass
        A         /F#  /G     E
You remember when love was found
        E
Hold my heart in your pocket
       A         /F#   /G    E
I'm in love when you're around



            
            
Suggest correction
Creating personal tab
Creating personal tab
You can edit any tab online and save it as your Personal.

You can edit, replace or remove any tab part or add personal notes – all changes will be seen only by you.

Personal tabs can be accessed anytime from any device, even offline.
Learn more »
Give kudos to tab author, rate the tab!
1 2 3 4 5
comments
print report bad tab
4 comments total. Showing first comments.
0 reply
kevinb9n 277 Aug 27, 2017 01:48 AM

pretty darn good.

guest
You may want to rate the tab now too:
select rating
Wanna post a correction for this tab? Suggest correction