Oops, an error
Loading. Please wait.

When You Love Somebody chords

59,586 views 78 this week
2 commentsread comments
1 2 3 4 5
x 40
add to favorites
×
Save as Personal and add changes to this tab that will be seen only by you. Learn more ›
×
You can save this tab as Personal to edit and correct it or add notes. All changes will be seen only by you. Learn more »
launch autoscroll
font size
0
reset
transpose
0
reset
display chords
guitar tuner
edit
Autoscroll
slow
fast
+/-
esc
set tempo
stop
Author
Strumming
There is no strumming pattern for this song yet. and get +5 IQ
[Intro]
G x4

[Verse]
 G      G                          C               C
Baby, remember on the bus and my hand was on your knee
        D                  D                  C                 G
When U love somebody it's hard to think about anything but to breathe
 G    G                     C                  C
Baby, I am the cub who was washed out in the flood
        D                 D                        C                     G
When U love somebody and bite your tongue all you get is a mouthful of blood...okay

[Instrumental]
   G         Dm        C         C
e|-7-7-7-7---5-5-5-5---8-8-8-8---8-8-8-8-|
B|-8-8-8-8---6-6-6-6---8-8-8-8---8-8-8-8-|
G|-7-7-7-7---7-7-7-7---9-9-9-9---9-9-9-9-|     x4
D|---------------------------------------|
A|---------------------------------------|
E|---------------------------------------|

G x4

Repeat verse "...here we go"

[Instrumental]
   G         Dm        C         C
e|-7-7-7-7---5-5-5-5---8-8-8-8---8-8-8-8-|
B|-8-8-8-8---6-6-6-6---8-8-8-8---8-8-8-8-|
G|-7-7-7-7---7-7-7-7---9-9-9-9---9-9-9-9-|     x4
D|---------------------------------------|
A|---------------------------------------|
E|---------------------------------------|

[Verse]
 G-single strum             C-single strum
Baby, I am the cub who was washed out in the flood
        D-single strum                             C-single strum        G-single strum
When U love somebody and bite your tongue all you get is a mouthful of blood

[Instrumental]
   G         Dm        C         C
e|-7-7-7-7---5-5-5-5---8-8-8-8---8-8-8-8-|
B|-8-8-8-8---6-6-6-6---8-8-8-8---8-8-8-8-|
G|-7-7-7-7---7-7-7-7---9-9-9-9---9-9-9-9-|     x2
D|---------------------------------------|
A|---------------------------------------|
E|---------------------------------------|

Instrumental (once for each line):
When U love somebody it's hard to think about anything but to breathe
When U love somebody it's hard to think about anything but to breathe
When U love somebody and bite your tongue all you get is a mouthful of blood
When U love somebody it's hard to figure out, hard to figure out
When U love somebody it's hard to figure out, hard to figure out

[Instrumental]
   G         Dm        C         C
e|-7-7-7-7---5-5-5-5---8-8-8-8---8-8-8-8-|
B|-8-8-8-8---6-6-6-6---8-8-8-8---8-8-8-8-|
G|-7-7-7-7---7-7-7-7---9-9-9-9---9-9-9-9-|     
D|---------------------------------------|
A|---------------------------------------|
E|---------------------------------------|

        D                  D                  C                 G
When U love somebody it's hard to think about anything but to breathe

            
            
Suggest correction
Creating personal tab
Creating personal tab
You can edit any tab online and save it as your Personal.

You can edit, replace or remove any tab part or add personal notes – all changes will be seen only by you.

Personal tabs can be accessed anytime from any device, even offline.
Learn more »
comments
print report bad tab
2 comments total.
0 reply
Shwax 256 Mar 30, 2015 06:03 PM

I think the C in the "instrumental" is played x-x-x-12-13-12 (or at least x-x-x-9-8-12). Otherwise, perfect.

0 reply
Stewed 70 Mar 31, 2016 02:43 PM

Thanks for this! I think the key might actually be in A?

guest
You may want to rate the tab now too:
select rating
Wanna post a correction for this tab? Suggest correction