Oops, an error
Loading. Please wait.

Ampn chords

775 views 1 this week
2 commentsread comments
1 2 3 4 5
2 more votes to show rating
add to favorites
×
Save as Personal and add changes to this tab that will be seen only by you. Learn more ›
×
You can save this tab as Personal to edit and correct it or add notes. All changes will be seen only by you. Learn more »
launch autoscroll
font size
0
reset
transpose
0
reset
display chords
guitar tuner
edit
Autoscroll
slow
fast
+/-
esc
set tempo
stop
Author
Difficulty
Strumming
There is no strumming pattern for this song yet. and get +5 IQ
If u like me dont wanna tune down ur guitar to play one song, here is the tab for Ampn 
tuning !

Frankieflex over and out ^^

Tuning : EADGBe

Intro:

-------------------------------|
-------------------------------|
-------7-7-----7-7-------------|
-9-----7-7-7-7-7-7-7-7---------| x2
-9-----5-5-7-7-5-5-7-7---------|
-7---------5-5-----5-5---------|

Chorus chords:
--------------------------------------------|
--------------------------------------------|
--------------------------------------------|
--7---9--7-7--------------7-----9--7-7------|
--7-S-9--7-7-------5--h7--7--S--9--7-7------|
--5---7--5-5--5--h7-------5-----7--5-5------|

Verse:

------------------------------------------------------|
------------------------------------------------------|
--------------------7---------------------------------|
--7----9---7----9---7--9--7-7-7---9-------------------|
--7--S-9---7--S-9---5--9--7-7-7-S-9-------------------|
--5----7---5----7------7--5-5-5---7-------------------|

Enjoy ^^

            
            
Suggest correction
Creating personal tab
Creating personal tab
You can edit any tab online and save it as your Personal.

You can edit, replace or remove any tab part or add personal notes – all changes will be seen only by you.

Personal tabs can be accessed anytime from any device, even offline.
Learn more »
Give kudos to tab author, rate the tab!
1 2 3 4 5
comments
print report bad tab
2 comments total.
0 reply
ibanez87 311 Mar 16, 2007 06:15 PM

good
only one mistake.

I think It should be
----------------------------------------|
----------------------------------------|
----------------------------------------|
--7---9--7-7----------7-----9--7-7------|
--7-S-9--7-7--------5-7--S--9--7-7------|
--5---7--5-5--5-6-7---5-----7--5-5------|

0 reply
Frankieflex 32 Mar 17, 2007 03:42 AM

Ahh yes that sounds better and more correct ...thx for the comment ! Sloppy me =(

guest
You may want to rate the tab now too:
select rating
Wanna post a correction for this tab? Suggest correction