Oops, an error
Loading. Please wait.

Mongoose tab

version 4
version 4

Whole song

Interactive

3,745 views 30 this week
1 commentread comment
1 2 3 4 5
x 7
add to favorites
×
Save as Personal and add changes to this tab that will be seen only by you. Learn more ›
×
You can save this tab as Personal to edit and correct it or add notes. All changes will be seen only by you. Learn more »
launch autoscroll
font size
0
reset
how to read this tab
guitar tuner
edit
Autoscroll
slow
fast
+/-
esc
set tempo
stop
tabbed by 90tysrocks

 Tuning: 1 step down

  - Thats the complete Song for both guitars - 

Have Fun :-)


Guitar 1 Riff A1
e|----------------------------------------------- \
b|-----------------------------------------------  \
g|-----------------------------------------------   \ 10 Times
D|--------------------------------5--------------   /
A|--------------5--7-----5--7--------7--5--------  /
E|--0--0--0--0--------0--------0-----------7--5-- /


Guitar 1 Interlude
e|----------------------------------------------------------------|  
b|----------------------------------------------------------------|
g|----------------------------------------------------------------| 
D|--7----7--7--0---5----5--5--5--5--/--12----12--12--0--7---------|
A|--7----7--7--0---5----5--5--5--5--/--12----12--12--0--7----17\--|
E|--5----5--5--0---3----3--3--3--3--/--10----10--10--0--5----17\--|


Guitar 1 + Guitar 2 Riff A1
e|----------------------------------------------- \
b|-----------------------------------------------  \
g|-----------------------------------------------   \ 
D|--------------------------------5--------------    \  
A|--------------5--7-----5--7--------7--5--------    |  
E|--0--0--0--0--------0--------0-----------7--5--    | 
                                                      \ 2                  
                                                    Times        
Guitar 1 + Guitar 2 Riff A2                           /  
e|-----------------------------------------------    |  
b|-----------------------------------------------    | 
g|-----------------------------------------------    /
D|-----------------------------------------------   /
A|--------------5--7-----5--7--------------5--7--  /
E|--0--0--0--0--------0--------0--3--5--7-------- /


Guitar 1 + Guitar 2 Chorus (2 Times)
e|-------------------------------------------------------|
b|-------------------------------------------------------|
g|-------------7-------------5-------------7-------------|  
D|--2-2-2-2----7--7-7-7-7----5--5-5-5-5----7--7-7-7-7-7--|  
A|--2-2-2-2-0--5--7-7-7-7-0--3--5-5-5-5-0--5--7-7-7-7-7--| 
E|--0-0-0-0-0-----5-5-5-5-0-----3-3-3-3-0-----5-5-5-5-5--|


Guitar 1
e|-------------------------------------------------|   
b|-------------------------------------------------|    
g|-------------------------------------------------|     
D|----------------------5--------------------------|     
A|----------5-7---5-7-----7-5-------------5-7-5-7--|   
E|--0-0-0-0-----0-----0-------7-5-0-0-0-0----------|


Guitar 1 + Guitar 2 Riff A1*
e|----------------------------------------------- \
b|-----------------------------------------------  \
g|-----------------------------------------------   \ 
D|--------------------------------5--------------    \  
A|--------------5--7-----5--7--------7--5--------     \
E|--0--0--0--0--------0--------0-----------7--5--      |
                                                       |  
                                                       \ 3 Times
Guitar 1 + Guitar 2 Riff A2                            / 
e|-----------------------------------------------      | 
b|-----------------------------------------------      |
g|-----------------------------------------------     /  
D|-----------------------------------------------    /
A|--------------5--7-----5--7--------------5--7--   / 
E|--0--0--0--0--------0--------0--3--5--7--------  / 
  

Guitar 2 plays above Riff A1* this little Riff 
e|----------------| 
b|----------------|  
g|--7h9--7--------|    
D|----------9--7--|     
A|----------------|      
E|----------------|

and in the 2nd Time Guitar 2 plays this above Riff A1+A2 
e|----------------------------------| 
b|--5---3---2---3---5---3---2---3---|
g|--b7--b5--b4--b5--b7--b5--b4--b5--|   
D|----------------------------------|     
A|----------------------------------|      
E|----------------------------------|


Guitar 1 Chorus (3 Times)
e|-------------------------------------------------------|
b|-------------------------------------------------------| 
g|-------------7-------------5-------------7-------------|  
D|--2-2-2-2----7--7-7-7-7----5--5-5-5-5----7--7-7-7-7-7--|  
A|--2-2-2-2-0--5--7-7-7-7-0--3--5-5-5-5-0--5--7-7-7-7-7--| 
E|--0-0-0-0-0-----5-5-5-5-0-----3-3-3-3-0-----5-5-5-5-5--|

Guitar 1 Chorus 4th Time
e|-----------------------------------------------------------| 
b|-----------------------------------------------------------| 
g|-----------------7-----------------10------10------10------|
D|--2--2--2--2-----7--7--7--7--7-----10--10--10--10--10--10--|
A|--2--2--2--2--0--5--7--7--7--7--0--8---10--8---10--8---10--|
E|--0--0--0--0--0-----5--5--5--5--0------8-------8-------8---|


Guitar 2 Chorus 1st Time
e|----------------------------------------------------------------|
b|----------------------------------------------------------------|
g|------------------------12----------------12----------------12--|
D|--12h14-14-14-14p12--------14-14-14p12-------14-14-14p12--------|
A|---------------------14----------------14----------------14-----|
E|----------------------------------------------------------------|

e|------------------------|
b|------------------------|
g|-----14-14p12----12-12--|
D|--14----------14--------|
A|------------------------|
E|------------------------|

Guitar 2 Chorus 2nd Time
e|---------------------------------------------------------------|
b|---------------------------------------------------------------|
g|------------------------12----------------12-------------------|
D|--12h14-14-14-14p12--------14-14-14p12-------14-14-14p12----12-|
A|---------------------14----------------14----------------14----|
E|---------------------------------------------------------------|

e|--------------------|
b|--------------------|
g|--------------------|
D|-----14-14p12-------|
A|--14----------14p12-|
E|--------------------|

3th Time is the same than 1st.

Guitar 2 Chorus 4th Time
e|-------------------------------------------|
b|-------------------------------------------|
g|------------------------12-----------------|
D|--12h14-14-14-14p12--------14-14-14p12-----|
A|---------------------14----------------14--|
E|-------------------------------------------|

e|---------------------------------------|
b|---------------------------------------|
g|--b14r-12-12-b14r-12-14-b14r-12-14/16--|
D|---------------------------------------|
A|---------------------------------------|
E|---------------------------------------|
  
Guitar 2 play Solo 1 above Riff A1 from Guitar 1

e|--12--12--12--12--12--12--12--12--12---12---12---12---|
b|--b15-----b15-----b15-----b15-----b15--b15--b15--b15--|
g|------------------------------------------------------|
D|------------------------------------------------------|
A|------------------------------------------------------|
E|------------------------------------------------------|

e|------------------------------|
b|--15--12------12--------------|
g|----------14------14--12--14--|
D|------------------------------|
A|------------------------------|
E|------------------------------|

e|-------------------------------------------------------------------|
b|-------------------------------------------------------------------|
g|--14--12-----------------------------------------------------------|
D|----------14--14--12--12------12--h14--14-----------------12--12\--|
A|--------------------------14---------------12--10--12/14-----------|
E|-------------------------------------------------------------------|

e|--------------------------------------------------------------|
b|----------------------------------------------------------17--|
g|--12----14----12----16----19----16----19p16-----19p16---------|
D|-----14----14----14----19----19----19-------h19-------h19-----|
A|--------------------------------------------------------------|
E|--------------------------------------------------------------|


Guitar 1 + Guitar 2 Riff A1
e|----------------------------------------------- \
b|-----------------------------------------------  \
g|-----------------------------------------------   \ 
D|--------------------------------5--------------    \  
A|--------------5--7-----5--7--------7--5--------     \ 
E|--0--0--0--0--------0--------0-----------7--5--      \
                                                        \ 2 Times
                                                         \
Guitar 1 + Guitar 2 Riff A2                              /
e|-----------------------------------------------       /
b|-----------------------------------------------      /
g|-----------------------------------------------     /
D|-----------------------------------------------    /
A|--------------5--7-----5--7--------------5--7--   /
E|--0--0--0--0--------0--------0--3--5--7--------  /


Guitar 2 above Riff A1 + A2
e|----------------------------------|
b|--5---3---2---3---5---3---2---3---|
g|--b7--b5--b4--b5--b7--b5--b4--b5--|
D|----------------------------------|
A|----------------------------------|
E|----------------------------------|


Guitar 1 Chorus
e|-------------------------------------------------------|
b|-------------------------------------------------------|
g|-------------7-------------5-------------7-------------|
D|--2-2-2-2----7--7-7-7-7----5--5-5-5-5----7--7-7-7-7-7--|
A|--2-2-2-2-0--5--7-7-7-7-0--3--5-5-5-5-0--5--7-7-7-7-7--|
E|--0-0-0-0-0-----5-5-5-5-0-----3-3-3-3-0-----5-5-5-5-5--|

Guitar 1 Chorus last Time
e|-----------------------------------------------------------|
b|-----------------------------------------------------------|
g|-----------------7-----------------10------10------10------|
D|--2--2--2--2-----7--7--7--7--7-----10--10--10--10--10--10--|
A|--2--2--2--2--0--5--7--7--7--7--0--8---10--8---10--8---10--|
E|--0--0--0--0--0-----5--5--5--5--0------8-------8-------8---|


after 2 Times start guitar 2 play the chorus
1st Time this
e|----------------------------------------------------------------|
b|----------------------------------------------------------------|
g|------------------------12----------------12----------------12--|
D|--12h14-14-14-14p12--------14-14-14p12-------14-14-14p12--------|
A|---------------------14----------------14----------------14-----|
E|----------------------------------------------------------------|

e|------------------------|
b|------------------------|
g|-----14-14p12----12-12--|
D|--14----------14--------|
A|------------------------|
E|------------------------|

2nd Time this
e|---------------------------------------------------|
b|---------------------------------------------------|
g|-----------------------12--------------------------|
D|-12h14-14-14-14p12--------14-14-14p12----12----12--|
A|--------------------14----------------14----14-----|
E|---------------------------------------------------|

e|----------------------------------------|
b|----------------------------------------|
g|-----------------------------12---------|
D|-----------------12----12h14----14p12h--|
A|--14-12----12h14----14------------------|
E|--------15------------------------------|


than Solo 2
e|----------------------------------------------------------------------|
b|--16/17--17--17--15--12-----------------------------------------------|
g|-------------------------14--12-12--14/16\--12--14--14/16\14--12--16--|
D|----------------------------------------------------------------------|
A|----------------------------------------------------------------------|
E|----------------------------------------------------------------------|

e|-----------------------------------------------------------------------|
b|---12---12---12---10---10---10---5---5---5---8----8---8---8---8---8----|
g|--b14--b14--b14--b12--b12--b12--b7--b7--b7--b10--b10-b10-b10-b10-b10---|
D|-----------------------------------------------------------------------|
A|-----------------------------------------------------------------------|
E|-----------------------------------------------------------------------|

e|------------------------------------------|
b|------------------------------------------|
g|------------------------------------------|
D|--14------------------14------------------|
A|------14--12--10----------14--12--10------|
E|------------------12------------------12--|

e|-------------------------------------------------------------------------|
b|-------------------------------------------------------------------------|
g|---------------------------------------12------12--14--b14--r14--12--14--|
D|-------------12--12---------14--12h14------14----------------------------|
A|--10--12/14----------14/17-----------------------------------------------|
E|-------------------------------------------------------------------------|

e|--------------------------------------------------|
b|--------------------------------------------------|
g|--14/16\14--12--14--14/16\14--12--14--12----------|
D|------------------------------------------14--12--|
A|--------------------------------------------------|
E|--------------------------------------------------|

e|---------------------------------------|
b|---------------------------------------|
g|--b14r-12-12-b14r-12-14-b14r-12-14/16--|
D|---------------------------------------|
A|---------------------------------------|
E|---------------------------------------|

Thats it
           Have Fun :-)

            
            
Suggest correction
Creating personal tab
Creating personal tab
You can edit any tab online and save it as your Personal.

You can edit, replace or remove any tab part or add personal notes – all changes will be seen only by you.

Personal tabs can be accessed anytime from any device, even offline.
Learn more »
comments
print report bad tab
1 comment total.
0 reply
philipp235 75 May 04, 2015 12:39 PM

well done, thanks!

guest
You may want to rate the tab now too:
select rating
Wanna post a correction for this tab? Suggest correction