Oops, an error
Loading. Please wait.

The Wasteoid tab

version 1
version 1

Whole song

  • Properly formatted and more accurate in every sect... Show more
1,774 views 1 this week
no commentswrite comment
1 2 3 4 5
x 3
add to favorites
×
Save as Personal and add changes to this tab that will be seen only by you. Learn more ›
×
You can save this tab as Personal to edit and correct it or add notes. All changes will be seen only by you. Learn more »
launch autoscroll
font size
0
reset
how to read this tab
guitar tuner
edit
Autoscroll
slow
fast
+/-
esc
set tempo
stop
the wasteoid - instrumental

by Fu Manchu
from the new album 'california crossing'

transcribed by Christian Reindel (creindel@gmx.de)
any questions or corrections - e-mail me

. - stop the delay
 
TUNE DOWN ONE WHOLE STEP

Riff 1
D:|------------------------------------------------------------------|
A:|------------------------------------------------------------------|
F:|------------------------------------------------------------------|
C:|-7/9--9--9---7/9--9-9---7/9--9---7/9--9--9---7/9--5---------------|
G:|-5/7--7--7---5/7--7-7---5/7--7---5/7--7--7---5/7----5-4-----------|
D:|------.--.--------.-.--------.--------.--.---------------5-5p3-0--|

Riff 2
D:|-----------------------------------------------|
A:|-----------------------------------------------|
F:|-----------------------------------------------|
C:|-7/9------(9)----------5-----------------------|
G:|-5/7------(7)------------5-4-------------------|
D:|-----------------------------5-5p3-0-----------|

Riff 3
D:|--------------------------------------------------------------|
A:|---------------------------------------10~~~------------------|
F:|--------------------------------------------------------------|
C:|---9p7h9-----------------9p7h9--------------------------------|
G:|---------8-7---5h7-5------------8-7---------------------------|
D:|-7--------------------7---------------------------------------|

D:|--------------------------------------------------------------|
A:|--------------------------------------9~~~--------------------|
F:|--------------------------------------------------------------|
C:|---9p7h9-----------------9p7h9--------------------------------|
G:|---------8-7---5h7-5------------8-7---------------------------|
D:|-7---------------------7--------------------------------------|


Riff 4
D:|--------------------------------------------------------------|
A:|-------------------------------------8~~~~--------------------|
F:|--------------------------------------------------------------|
C:|---7p5h7----------------7p5h7---------------------------------|
G:|-0-------6-5--3h5-3---0-------6-5-----------------------------|
D:|--------------------------------------------------------------|




D:|--------------------------------------------------------------|
A:|--------------------------------------------------------------|
F:|--------------------------------------------------------------|
C:|---7p5h7----------------7p5h7---------------------------------|
G:|-0-------6-5--3h5-3---0-------6-5---5-5-5-5-------------------|
D:|------------------------------------.-.-.-.-------------------|

Riff 5
D:|-----------------------------------------------|
A:|-----------------------------------------------|
F:|-----------------------------------------------|
C:|--9-9--9---9-9-9---9-9---7-8-9-----------------|
G:|--7-7--7---7-7-7---7-7---5-6-7-----------------|
D:|-----------------------------------------------|

Riff 1a
D:|---------------------------------------------------|
A:|---------------------------------------------------|
F:|---------------------------------------------------|
C:|-7/9--9--9---7/9--9-9---7/9--9---7/9--9--9---7/9---|
G:|-5/7--7--7---5/7--7-7---5/7--7---5/7--7--7---5/7---|
D:|------.--.--------.-.--------.--------.--.---------|

                                 end riff 1a
D:|-----------------------------------------|
A:|-----------------------------------------|
F:|-----------------------------------------|
C:|---5------5------5-----------------------|
G:|-----5-4----5-4----5-4------------2------|
D:|-------------------------5-5p3-0--0------|

song structure :

Riff 1 - 4 times
Riff 2 - 2 times
Riff 1 - 2 times
Riff 3 - 1 time
Riff 4 - 1 time
Riff 5 - 8 times
Bass Solo
Drum Solo

THE WASTEOID

Riff 1 - 3 times
Riff 1a - 1 time
end.

            
            
Suggest correction
Creating personal tab
Creating personal tab
You can edit any tab online and save it as your Personal.

You can edit, replace or remove any tab part or add personal notes – all changes will be seen only by you.

Personal tabs can be accessed anytime from any device, even offline.
Learn more »
Give kudos to tab author, rate the tab!
1 2 3 4 5
comments
print report bad tab
guest
You may want to rate the tab now too:
select rating
Wanna post a correction for this tab? Suggest correction