Oops, an error
Loading. Please wait.

Weird Beard Tab

version 2
version 2

Whole song

  • Correct tuning (D Tuning, not Drop D). Solo is com... Show more
43 views 12 this week
no commentswrite comment
1 2 3 4 5
1 last vote to show rating
add to favorites
launch autoscroll
font size
0
reset
how to read this tab
guitar tuner
Autoscroll
slow
fast
+/-
esc
set tempo
stop
Help us to improve Ultimate-Guitar.com Take our survey!
×
Author
Difficulty
Tuning
novice
D G C F A D
About this tab version
Correct tuning (D Tuning, not Drop D). Solo is complete. Riffs are complete and accurate. Was this info helpful? Yes No
'WEIRD BEARD'
by Fu Manchu


tabbed by:    Dropdeee
tuning:       D-tuning  (D G C F A D)
effect:       distortion/fuzz
video:        https://www.youtube.com/watch?v=w-BwvG24N-w


***   backing track now available  -  https://www.youtube.com/watch?v=d3toyJ-PMQE   ***




 [Intro]

D|---------------------------------------------|------------------------------|
A|---------------------------------------------|------------------------------|
F|---------------------------------------------|------------------------------|
C|------5-----5--7----7qb--7--5-----5----------|-----5-----5--7----7qb--7--5--| x 4
G|---------7---------------------7-----7--6--5-|--------7---------------------|
D|--0------------------------------------------|-0----------------------------|


 [Verse]

  'Hundreds..
D|-------------|
A|-------------|
F|-------------|
C|-------------|
G|--7--7-------|
D|--0--0-------|


 [Chorus]

  'And he riiiides..
D|------------------------------------------|                 D|-----------------|
A|------------------------------------------|        optional A|-----------------|
F|------------------------------------------|         ending  F|-----------------|
C|--------------------5---------------------| x 8       to    C|-----------------|
G|--------5h7-7-7-7-5-5-7---7-7-0-----------|          this   G|--7-7-0----------|
D|-------------------------------g3/5--3~---|          riff   D|-------g3/5--3p0-|


  'and he says..          he says..                        'Weird, beard..
D|---------------------------------------------------------------------------|
A|---------------------------------------------------------------------------|
F|---------------------------------------------------------------------------|
C|---------------------------------------------------------------------------|
G|--------9------------------7----------------X--5---2-----------------------|
D|--------7------------------5----------------X--3---0-----------------------|


 [Intro Riff]

D|---------------------------------------------|------------------------------|
A|---------------------------------------------|------------------------------|
F|---------------------------------------------|------------------------------|
C|------5-----5--7----7qb--7--5-----5----------|-----5-----5--7----7qb--7--5--| x 4
G|---------7---------------------7-----7--6--5-|--------7---------------------|
D|--0------------------------------------------|-0----------------------------|



[Verse]

  'Five mile..
D|-------------|
A|-------------|
F|-------------|
C|-------------|
G|--7--7-------|
D|--0--0-------|


 [Chorus]

  'And he riiiides..
D|------------------------------------------|                 D|-----------------|
A|------------------------------------------|        optional A|-----------------|
F|------------------------------------------|         ending  F|-----------------|
C|--------------------5---------------------| x 8       to    C|-----------------|
G|--------5h7-7-7-7-5-5-7---7-7-0-----------|          this   G|--7-7-0----------|
D|-------------------------------g3/5--3~---|          riff   D|-------g3/5--3p0-|


  'and he says..          he says..                        'Weird, beard..
D|---------------------------------------------------------------------------|
A|---------------------------------------------------------------------------|
F|---------------------------------------------------------------------------|
C|---------------------------------------------------------------------------|
G|--------9------------------7----------------X--5---2-----------------------|
D|--------7------------------5----------------X--3---0-----------------------|


 [Solo]

D|--------------------------------------------------------------------------|
A|--hpb10r--fpb10r--hpb10r--8------------------8qb-------10hb--10-8-10-8~---|
F|-----------------------------9--7-----7h9~--------------------------------|
C|-----------------------------------9--------------------------------------|
G|--------------------------------------------------------------------------|
D|--------------------------------------------------------------------------|

D|----------------------------------------------------------|
A|--------------------------------------------8-------------|
F|--9p7-----7/9--7----------------------7-------h9--9~~\----|
C|-------9----------9--7--5-----5-g7/9-----9----------------|
G|---------------------------7------------------------------|
D|----------------------------------------------------------|

D|--10hb--12-------------------------------------------------------------------|
A|------------10--10hbrp8--10---8qb------------------------------8-------------|
F|----------------------------9------9-g7h9~~--7--9--7-----7--9-----9--7--9\4--|
C|------------------------------------------------------9----------------------|
G|-----------------------------------------------------------------------------|
D|-----------------------------------------------------------------------------|

D|--------------------------------------------------------------------------------------------|
A|-----------------8qb---8--10qbrp8--10--8--8~~-----------------------------------------------|
F|--2p0---2--2/8-------9----------------------9-g7h9-g7h9--g7h9--7---------------------7--7~--|
C|------2-----------------------------------------------------------9-g7/5-----5/7--9---------|
G|--------------------------------------------------------------------------7-----------------|
D|--------------------------------------------------------------------------------------------|

D|--------------------------------------------------------------------|
A|--------8-10--10hbrp8--10~~-----8-----8--8~~------------------------|
F|--2/8------------------------------9----------9--7------------------|
C|----------------------------------------------------9--7--5---------|
G|-------------------------------------------------------------7--5---|
D|--------------------------------------------------------------------|


 [Chorus]

  'And he riiiides..
D|------------------------------------------|                 D|-----------------|
A|------------------------------------------|        optional A|-----------------|
F|------------------------------------------|         ending  F|-----------------|
C|--------------------5---------------------| x 7       to    C|-----------------|
G|--------5h7-7-7-7-5-5-7---7-7-0-----------|          this   G|--7-7-0----------|
D|-------------------------------g3/5--3~---|          riff   D|-------g3/5--3p0-|


 [Outro]

D|-----------------------------------------------|
A|-----------------------------------------------|
F|-----------------------------------------------|
C|--------------------5--------------------------|
G|--------5h7-7-7-7-5-5-7------------7---5---2---|
D|-----------------------------XX----5---3---0---|
                         Pick Scrape



************************************

| g   Grace note
| h   Hammer-on
| p   Pull-off
| r   Release
| qb  Quarter Bend
| hb  Half Bend
| br  Bend release
| pb  Pre-bend
| fpb Full Pre-bend
| pbr Pre-bend release
| /   Slide up
| \   Slide down
| ~   Vibrato
| X   Dead Note

************************************
Suggest correction
Give kudos to tab author, rate the tab!
1 2 3 4 5
comments
print report bad tab
guest
You may want to rate the tab now too:
select rating
Wanna post a correction for this tab? Suggest correction