Oops, an error
Loading. Please wait.

A Fraction Off Death Tab

version 2
version 2

Whole song

Interactive

12 views 3 this week
no commentswrite comment
1 2 3 4 5
please rate
add to favorites
launch autoscroll
font size
0
reset
how to read this tab
guitar tuner
Tab Pro tools
  • play this tab
  • loop segment
  • change instrument
  • show fretboard
  • metronome
Autoscroll
slow
fast
+/-
esc
set tempo
stop
Contributor
Band: Fuck...I'm Dead 
Album: Bring On The Dead 
Song: A Fraction Off Death 


Code: 
. - palm mute           / - slide up to 
\ - slide down to       x – Staccato 
h - hammer on           p - pull off 
, - slight palm mute    () - ghost note, sustained note 
" - tremolo note        <> - Trill 
L – left channel only   R – right channel only 
* - see comment 

Suffixes for bend 
f - full bend       h - half bend 
q - quarter bend    t - tap bend 
^ - Hold bend       r - release bend 
~ - vibrato bend 

Suffixes for harmonic 
ph - pinched harmonic   n – natural/artificial harmonic 

Tuning B F# B E G# C# 


Riff 1a (0:00) 
|--------------------------------------------------| 
|--------------------------------------------------| 
|--------------------------------------------------| 
|---3-1-0---2---1---3-1-0--------------------------| 
|-2-------2---2---2--------------------------------| 
|-------------------------1-1-1-2-2-2-4-4-4-2-2-2--| 
                          . . . . . . . . . . . . 

Riff 1b (0:04) 
|----------------------------------| 
|----------------------------------| 
|----------------------------------| 
|---3-1-0---2---1---3-1-0---2---1--| 
|-2-------2---2---2-------2---2----| 
|----------------------------------| 

Fill 1 (0:08) 
|-----------------| 
|-----------------| 
|-----------------| 
|----5-3-1-0-1-3--| 
|-5---------------| 
|-5---------------| 

Riff 2 (0:09) play 4 times 
|------------------| 
|------------------| 
|------------------| 
|---3-5-1-0-1-3-1--| 
|-2----------------| 
|------------------| 

Riff 3 (0:17) 
|--------------------------------------------------------------| 
|--------------------------------------------------------------| 
|-------4-----4-4-4-------------4-----4-4-4--------------------| 
|-----------------------4---------------------7-4--------------| 
|-6-6-6---6-6-------6-7---6-6-6---6-6-------6-----7-6-5-4-3-2--| 
|-------------------------------------------------7-6-5-4-3-2--| 
  . . .   . .       . . . . . .   . .       . . . 

Riff 4 (0:22) 
|-----------------------------------------------| 
|-----------------------------------------------| 
|-----------------------------------------------| 
|----4----------------5--3ph--------------------| 
|-1--2------2-----3ph-3-------------------------| 
|-1-----1-1---1-1---------------221221-221-221--| 
        . . . . . .             ...... ... ... 

Riff 5 (0:28) play 8 times 
|--------------------| 
|--------------------| 
|--------------------| 
|---------6-6-7-6-6--| 
|---------4-4/5-4-4--| 
|-11111111-----------| 
  ........ 

Riff 6 (0:39) 
|----------------------------------| 
|----------------------------------| 
|-----6"-7"------6"-9-7"--6"-9-7"--| 
|-----4"-5"------4"-7-5"--4"-7-5"--| 
|----------------------------------| 
|-0701-------0701------------------| 
  ....       .... 

Riff 7 (0:46) play twice. Not sure about this one. 
|-----------------| 
|-----------------| 
|-----------------| 
|-----------------| 
|-----3--------3--| 
|-0701-07010302---| 
  .... ........ 

Riff 8 (0:51) play 4 times 
|----------------------------------| 
|----------------------------------| 
|----------------------------------| 
|-----3333555511110000111133331111-| 
|----------------------------------| 
|-5555-----------------------------| 

Fill 2 (0:59) 
|----------| 
|----------| 
|----------| 
|-5--5ph---| 
|-3--------| 
|----------| 

Riff 9 (1:00) play till end, FADE OUT 
|-------------------------------------| 
|-------------------------------------| 
|--------1------7------------7--------| 
|--------2----7----4--3----7---7------| 
|-0--------/5------1--0--5-------8ph--| 
|-0--0-0------------------------------| 
     . . 

END
comments
We did not receive enough feedback on this tab! Please rate:
print report bad tab
1 2 3 4 5
I want to post or [tab]
guest
You may want to rate the tab now too:
select rating
Please do not post tabs as comments. Select "correction" instead!