Oops, an error
Loading. Please wait.

Burnt To An Absolute Crisp Tab

version 1
version 1

Whole song

Interactive

49 views 3 this week
no commentswrite comment
1 2 3 4 5
please rate
add to favorites
launch autoscroll
font size
0
reset
how to read this tab
guitar tuner
Autoscroll
slow
fast
+/-
esc
set tempo
stop
Help us to improve Ultimate-Guitar.com Take our survey!
×
Author
Fuck... I'm Dead
Bring On The Dead
Burnt To An Absolute Crisp

Copyright (c)  Razorback Records 2001
Version 1.1 - 24.11.2009

Transcribed By: Yaniv Dekel
Email:          lickywebster@yahoo.com


.  - palm mute           /  - slide up to
\  - slide down to       ~  - vibrato
h  - hammer on           b  - Bend
p  - pull off            Suffixes for bend
t  - tap                 f  - full bend    h - half bend
ph - pinched harmonic    q  - quarter bend t - tap bend
*  - see comment         ^  - Hold bend    r release bend
x  - Stuccatto           ~  - vibrato bend
,  - slight palm mute    () - ghost note, sustained note
"  - tremolo note        <> - Trill

Tuning is C# with Drop B

Intro x1
|L
|--------------------------|
|--------------------------|
|---------------3-----ph---|
|---------------------4----|
|-----------------4-3------|
|--------------------------|
|               . . .
|R (Riff A)
|--------------------------|
|--------------------------|
|---------------3-----ph---|
|-----3/5\3-----------4----|
|-2---4/6\4---2---4-3------|
|-2-----------2------------|
  .           . . . .

Riff A x3

Passage x1
|---------------|
|---------------|
|-ph-whammy ----|
|-5-------------|
|---------------|
|---------------|

Riff B x2
|-------------------------------------------------*-----------------|
|-------------------------------------------------*-----------------|
|-------------------------------------------------------------------|
|-----3/5\3--------3/5\3-------ph------3/5\3------------------------|
|-2---4/6\4---2----4/6\4---2---3---2---4/6\4---2---------------3----|
|-2-----------2------------2-------2-----------2---5-3-2-5-3-2-3----|
                                                   . . . . . .

Riff C x1
|----------------------------------------------------------|
|----------------------------------------------------------|
|-----------------------------------------------3qb---3qb--|
|---------------------(4)-(4)-----------------5-----5------|
|----------------------3---2-------------------------------|
|-2---5432---5432---5432---2---2---5432---0----------------|
  .   ....   ....   ...        .   ....   .   .

Riff B x2 (second time stop at the ** mark)

Riff B2 x1
|------------------------------|
|------------------------------|
|------------------------------|
|------------------------------|
|------------------------------|
|-5-3-2---5-3-2---5-3-2---5-3--|
  . . .   . . .   . . .   . .

Part D x2
|L                                 2nd time only
|---------------------------------|-------------------|
|---------------------------------|-------------------|
|---------------------------------|-------------------|
|---------------------------------|-------------------|
|-0---------------5-------7-------|-8p7-0000----------|
|-0---------------5-------7-------|-----0000----------|
|
|R
|---------------------------------|-------------------|
|---------------------------------|-------------------|
|---------------------------------|-------------------|
|---------------------------------|-------------------|
|---7-8-5-7---5-7---5-7-8---7-8-5-|-8p7-0000----------|
|-0---------8-----5-------7-------|-----0000----------|

Riff D x2
|----------------------------------|
|----------------------------------|
|----------------------------------|
|-------------------------------ph-|
|---7-8-5-7---5-7---5-7-8---7-8-5--|
|-0---------8-----5-------7--------|

Riff E x4
|-----------------------|
|-----------------------|
|-5---------------------|
|-2---------------------|
|-3---333-2--------2p0--|
|---------2---2-2p0-----|
      ...     .

Riff A x3



END
Suggest correction new What's this?
You can suggest a correction to this tab. Community and Mods will review your correction and vote to approve or reject it.
comments
We did not receive enough feedback on this tab! Please rate:
print report bad tab
1 2 3 4 5
guest
You may want to rate the tab now too:
select rating
Please do not post tabs as comments. Select "correction" instead!