Oops, an error
Loading. Please wait.

Flesh Feast Tab

version 1
version 1

Whole song

50 views 1 this week
no commentswrite comment
1 2 3 4 5
please rate
add to favorites
launch autoscroll
font size
0
reset
how to read this tab
guitar tuner
Autoscroll
slow
fast
+/-
esc
set tempo
stop
Help us to improve Ultimate-Guitar.com Take our survey!
×
Contributor
dudeboy386 2,423

Band: Fuck...I'm Dead 
Album: Fuck...I'm Dead vs Engorged 
Song: Flesh Feast 

Copyright (c) Razorback Records, 2002 

Code: 
. - palm mute           / - slide up to 
\ - slide down to       x – Staccato 
h - hammer on           p - pull off 
, - slight palm mute    () - ghost note, sustained note 
" - tremolo note        <> - Trill 
L – left channel only   R – right channel only 
* - see comment 

Suffixes for bend 
f - full bend       h - half bend 
q - quarter bend    t - tap bend 
^ - Hold bend       r - release bend 
~ - vibrato bend 

Suffixes for harmonic 
ph - pinched harmonic   n – natural/artificial harmonic 

Tuning B F# B E G# C# 

Riff 1 (0:00) play 10 times 
|---------------------------------|-PLAY ON 6TH TIME--| 
|---------------------------------|-ONLY--------------| 
|---------------------------------|-------------------| 
|-------------------------1~------|-----77------------| 
|----------2ph-----3~-----3~------|---66--66557755----| 
|-222--2-2-----0-0----5-5----0-0--|-55----------------| 
  ...  . .     . .    . .    . . 

Fill 1 (0:30) 
|------| 
|------| 
|------| 
|------| 
|-2----| 
|-2----| 

Riff 1 (0:31)  play twice 
|-------------------------------------------------------------------| 
|-------------------------------------------------------------------| 
|-------------------------------------------------------------------| 
|-------------------------------------------------------------------| 
|-3333------------5555------------3333------------22220000----3333--| 
|-----333322222222----555533333333----333322222222--------6666------| 

Riff 2 (0:38) 
|---------------------------| 
|---------------------------| 
|---------------------------| 
|-------4"------------------| 
|–3"----3"-----7\/87-3ph----| 
|---------------------------| 

Riff 3a (0:42) play 3 times 
|---------------------------| 
|---------------------------| 
|---------------------------| 
|---------------------------| 
|---------------------------| 
|-003322007766003322002222--| 
  .................. 

Riff 3b (0:47) 
|---------------------| 
|---------------------| 
|---------------------| 
|---------------------| 
|------------------2--| 
|-003322007766003322--| 

Fill 2 (0:48) 
|---------| 
|---------| 
|---------| 
|-5-------| 
|-3-2--1--| 
|---2-01--| 
      . 

Riff 4 (0:50) play 4 times 
|----------------------| 
|----------------------| 
|----------------------| 
|--5--6----------------| 
|---31-----------------| 
|-0----2-4h7p4-3h6p3---| 

Riff 5 (0:57) play 4 times 
|---------------------| 
|---------------------| 
|---------------------| 
|---------------------| 
|-33223322------------| 
|---------44334433----| 

Fill 2 x 1 (1:04) 

Riff 6 (1:05) play 4 times 
|---------------------| 
|---------------------| 
|---------------------| 
|---------------------| 
|-333322223322336666--| 
|---------------------| 

Riff 3a x 1 (1:12) 
End




Suggest correction new What's this?
You can suggest a correction to this tab. Community and Mods will review your correction and vote to approve or reject it.
comments
We did not receive enough feedback on this tab! Please rate:
print report bad tab
1 2 3 4 5
guest
You may want to rate the tab now too:
select rating
Please do not post tabs as comments. Select "correction" instead!