Oops, an error
Loading. Please wait.

Fuck Im Dead Tab

version 2
version 2

Whole song

Interactive

75 views 1 this week
no commentswrite comment
1 2 3 4 5
please rate
add to favorites
launch autoscroll
font size
0
reset
how to read this tab
guitar tuner
Autoscroll
slow
fast
+/-
esc
set tempo
stop
Help us to improve Ultimate-Guitar.com Take our survey!
×
Contributor
Fuck... I'm Dead
Bring On The Dead
Fuck... I'm Dead

Copyright (c)  Razorback Records 2001
Version 1.1 - 23.11.09

Transcribed By: Yaniv Dekel
Email:          lickywebster@yahoo.com


.  - palm mute           /  - slide up to
\ - slide down to        ~  - vibrato
h  - hammer on           b  - Bend
p  - pull off            Suffixes for bend
t  - tap                 f  - full bend    h - half bend
ph - pinched harmonic    q  - quarter bend t - tap bend
*  - see comment         ^  - Hold bend    r release bend
x  - Stuccatto           ~  - vibrato bend
,  - slight palm mute    () - ghost note, sustained note
"  - tremolo note        <> - Trill

Tuning is C# with Drop B



Intro x1
|L
|---------------------------------|
|---------------------------------|
|---------------------------------|
|---------------------------------|
|-3-5-6-3-5-6-5-3----------13\----|
|-3---------6-5-3----------13\----|
|
|R
|---------------------------------|
|---------------------------------|
|---------------------------------|
|---------------------------------|
|-3---------6-5-3----------13\----|
|-3---------6-5-3----------13\----|

Riff A x2                          Riff B x2 (Left guitar plays riff A)
|---------------------------------||---------------------------------|
|---------------------------------||---------------------------------|
|---------------------------------||-----------"-"-------------------|
|---"-"-"-"---------"-"-"-"-------||---"-"-"-"-6-5-"---"-"-"-"-------|
|-"-5-6-3-5-"-"-"-"-5-6-3-5-"-"-"-||-"-5-6-3-5-----7-"-5-6-3-5-"-"-"-|
|-3---------6-5-2-3---------6-5-2-||-3---------------3---------6-5-2-|

Passage x1
|------------------------|
|------------------------|
|------------------------|
|------------------------|
|-3-----6-----2----------|
|-3-----6-----2----------|

Riff C x2
|------------------------------------|
|-"-----"----------------------------|
|-8-----7-----"----------------------|
|-5-----5-----6----------------------|
|-6-----5-----6-------------3-3-3-3--|
|-------------6-----3-4-5-5----------|

Riff D x8          |8th time
|------------------|-----|
|------------------|-----|
|------------------|-----|
|------------------|-----|
|------------------|-2---|
|-5-5-2-6-6-3-3-0--|-2---|

Riff C x4
Riff D x8

Riff E x4          Riff F x4
|-----------------||-----------------|
|-----------------||-----------------|
|-----------------||-----------------|
|-----------------||-----------------|
|-----------------||-2---5---6---3---|
|-2-2-5-5-6-6-3-3-||-2---5---6---3---|


END
comments
We did not receive enough feedback on this tab! Please rate:
print report bad tab
1 2 3 4 5
I want to post or [tab]
guest
You may want to rate the tab now too:
select rating
Please do not post tabs as comments. Select "correction" instead!