Oops, an error
Loading. Please wait.

Inject Me With Aids Tab

version 1
version 1

Whole song

Interactive

88 views 1 this week
no commentswrite comment
1 2 3 4 5
please rate
add to favorites
launch autoscroll
font size
0
reset
how to read this tab
guitar tuner
Autoscroll
slow
fast
+/-
esc
set tempo
stop
Help us to improve Ultimate-Guitar.com Take our survey!
×
Author
Fuck... I'm Dead
Bring On The Dead
Inject Me With AIDS

Copyright (c) Razorback Records, 2001
Version 1.1 - 30.3.2010

Transcribed By: Yaniv Dekel
Email:          lickywebster@yahoo.com


.  - palm mute           /  - slide up to
\  - slide down to       ~  - vibrato
h  - hammer on           b  - Bend
p  - pull off            Suffixes for bend
t  - tap                 f  - full bend    h - half bend
ph - pinched harmonic    q  - quarter bend t - tap bend
*  - see comment         ^  - Hold bend    r release bend
x  - Stuccatto           ~  - vibrato bend
,  - slight palm mute    () - ghost note, sustained note
"  - tremolo note        <> - Trill

Tuning is C# with Drop B

0:01
|-------------------------------------------------------------------|
|-------------------------------------------------------------------|
|-------------------------------------------------------------------|
|-------ph--------------ph--------------ph--------------ph----------|
|-2-3-5-2-0-2-3-5-2-3-5-2-0-2-3-5-2-3-5-2-0-2-3-5-2-3-5-2-0-2-3-5---|
|-2-3-5---0-2-3---2-3-5---0-2-3---2-3-5---0-2-3---2-3-5---0-2-3-----|
  . . .   . . .   . . .   . . .   . . .   . . .   . . .   . . .


As soon as both channels hit the last 5 note, a third guitar plays this:
|----------------------------------|
|-harmonic-------------------------|
|-5 ~whammy -----------------------|
|----------------------------------|
|----------------------------------|
|----------------------------------|

And a fourth guitar plays this
|-harmonic-------------------------|
|-4 ~whammy -----------------------|
|----------------------------------|
|----------------------------------|
|----------------------------------|
|----------------------------------|

0:10
| x4
|-----------------|
|-----------------|
|-----------------|
|-----------------|
|-2-3-5-0-0-2-3-0-|
|-2-3-5-0-0-2-3-0-|

0:14
|L
|-------------------------------------------------------------------|
|-------------------------------------------------------------------|
|-------------------------------------------------------------------|
|-----------------------------------7-5-------------7-5-------------|
|-0-------6-------4-------1-------5-----8-6-5\3-4/5-----8-6-5\4-----|
|-0-------6-------4-------1-----------------------------------------|
|
|R
|-------------------------------------------------------------------|
|-------------------------------------------------------------------|
|-------------------------------------------------------------------|
|-------------------------------------------------------------------|
|-0-------6-------4-------1-----------------------------------------|
|-0-------6-------4-------1-----------------------------------------|

0:19
|L
|-------------------------------------------------------------------|
|-------------------------------------------------------------------|
|-------------------------------------------------------------------|
|------------------------------------7-5-------------7-5------------|
|-------55------55------55------55-5-----8-6-5\3-4/5-----8-6-5------|
|-002233--002233--002233--002233------------------------------------|
|
|R
|-------------------------------------------------------------------|
|-------------------------------------------------------------------|
|-------------------------------------------------------------------|
|-------------------------------------------------------------------|
|-------55------55------55------55----------------------------------|
|-002233--002233--002233--002233------------------------------------|

0:25
Both guitars:
|-------------------------------------------------------------------|
|-------------------------------------------------------------------|
|-------------------------------------------------------------------|
|-------------------------------------------------------------------|
|-0-------6-------4-------1-2-----0-------6-------4-6-5---1-2-------|
|-0-------6-------4-------1---3-2-0-------6-------4-----6-1---3-2---|

0:33
|L
|-------------------------------------------------------------------|
|---------------------------------------------------harmonic--------|
|---------------------------------------------------5 ~whammy dive--|
|-------------------------------------------------------------------|
|-0-6-4-1-0-6-4-1--------55------55------55------55-----------------|
|-0-6-4-1-0-6-4-1--002233--002233--002233--002233-------------------|
|
|R
|---------------------------------------------------harmonic--------|
|---------------------------------------------------5 ~whammy dive--|
|-------------------------------------------------------------------|
|-------------------------------------------------------------------|
|-0-------0-6-4-1--------55------55------55------55-----------------|
|-0-------0-6-4-1--002233--002233--002233--002233-------------------|

0:39
Both guitars:
|-------------------------------------------------------------------|
|-------------------------------------------------------------------|
|-------------------------------------------------------------------|
|-------------------------------------------------------------------|
|-0-------6-------4-------1-2-----0-------6-------4-6-5---1-2-------|
|-0-------6-------4-------1---3-2-0-------6-------4-----6-1---3-2---|

|-------------------------------------------------------------------|
|-------------------------------------------------------------------|
|-------------------------------------------------------------------|
|-------------------------------------------------------------------|
|-0-------0-6-4-1--------55------55------55------55-----------------|
|-0-------0-6-4-1--002233--002233--002233--002233-------------------|


END
Suggest correction new What's this?
You can suggest a correction to this tab. Community and Mods will review your correction and vote to approve or reject it.
comments
We did not receive enough feedback on this tab! Please rate:
print report bad tab
1 2 3 4 5
guest
You may want to rate the tab now too:
select rating
Please do not post tabs as comments. Select "correction" instead!