Oops, an error
Loading. Please wait.

Licky Webster Tab

version 1
version 1

Whole song

Interactive

17 views 1 this week
no commentswrite comment
1 2 3 4 5
please rate
add to favorites
launch autoscroll
font size
0
reset
how to read this tab
guitar tuner
Autoscroll
slow
fast
+/-
esc
set tempo
stop
Help us to improve Ultimate-Guitar.com Take our survey!
×
Contributor
spritulrik 8,926
Band: Fuck...I'm Dead 
Album: Bring On The Dead 
Song: Licky Webster 



Code: 
. - palm mute           / - slide up to 
\ - slide down to       x – Staccato 
h - hammer on           p - pull off 
, - slight palm mute    () - ghost note, sustained note 
" - tremolo note        <> - Trill 
L – left channel only   R – right channel only 
* - see comment 

Suffixes for bend 
f - full bend       h - half bend 
q - quarter bend    t - tap bend 
^ - Hold bend       r - release bend 
~ - vibrato bend 

Suffixes for harmonic 
ph - pinched harmonic   n – natural/artificial harmonic 

Tuning B F# B E G# C# 

Intro (0:00) play 2 times 
|-------------------------------------------| 
|-------------------------------------------| 
|-------------------------------------------| 
|-------------------------------------------| 
|---------------------------------2----2hb--| 
|-553322335533223355332233553322--2----2hb--| 
  .............................. 

Riff 1a (0:08) play 2 times 
|---------------------------------------------------| 
|---------------------------------------------------| 
|---------------------------------------------------| 
|-------5"-2"----5"-2"------------------------------| 
|-2"-3"-------3"-------5"-2"-3"-5"-2"-3"-5"-2"-3ph--| 
|---------------------------------------------------| 

Riff 1b (0:16) play 2 times 
|---------------------------------------------------| 
|---------------------------------------------------| 
|---------------------------------------------------| 
|---------------------------------------------------| 
|----3"-------3"----------2"-3"-5"-2"-3"-5"-2"-3ph--| 
|-2"----5"-2"----5"-2"-0"---------------------------| 

Riff 2 (0:22) play 2 times 
|----------------------------------------| 
|----------------------------------------| 
|----------------------------------------| 
|-5---------------5----------------------| 
|–3--2----0---3-2-3--2--0---3-2-0---3-2--| 
|----2------2--------2----2-------2------| 

Riff 3 (0:37) play 4 times 
|----------------------------| 
|----------------------------| 
|----------------------------| 
|-------------------------1"-| 
|-2---1-1---1-2-----2"-3"----| 
|-2---1-1---1-2--3"----------| 
      .     . 
Riff 4a (0:52) play 4 times 
|-----------------------| 
|-----------------------| 
|-----------------------| 
|-------0--------0------| 
|–0h1p0----0h1p0--1p0---| 
|-----------------------| 

Riff 4b (0:59) play 4 times 
|------------------| 
|------------------| 
|------------------| 
|-----00--------0--| 
|–0011--11001100---| 
|------------------| 

Fill 1 (1:07) 
|---------------------------------| 
|---------------------------------| 
|---------------------------------| 
|---------------------------------| 
|---------------------------------| 
|-553322335533223355332233553322--| 
  .............................. 

Riff 1a x 1 (1:09) 
Riff 3 x 1/2 (1:16) 
Riff 1b x 1 (1:24) 
End
Suggest correction new What's this?
You can suggest a correction to this tab. Community and Mods will review your correction and vote to approve or reject it.
comments
We did not receive enough feedback on this tab! Please rate:
print report bad tab
1 2 3 4 5
I want to post or [tab]
guest
You may want to rate the tab now too:
select rating
Please do not post tabs as comments. Select "correction" instead!