Oops, an error
Loading. Please wait.

My Feral Fucktoy Tab

version 2
version 2

Whole song

Interactive

74 views 1 this week
no commentswrite comment
1 2 3 4 5
please rate
add to favorites
launch autoscroll
font size
0
reset
how to read this tab
guitar tuner
Autoscroll
slow
fast
+/-
esc
set tempo
stop
Help us to improve Ultimate-Guitar.com Take our survey!
×
Band: Fuck...I'm Dead 
Album: Bring On The Dead 
Song: My Feral Fucktoy 



Code: 
. - palm mute           / - slide up to 
\ - slide down to       x – Staccato 
h - hammer on           p - pull off 
, - slight palm mute    () - ghost note, sustained note 
" - tremolo note        <> - Trill 
L – left channel only   R – right channel only 
* - see comment 

Suffixes for bend 
f - full bend       h - half bend 
q - quarter bend    t - tap bend 
^ - Hold bend       r - release bend 
~ - vibrato bend 

Suffixes for harmonic 
ph - pinched harmonic   n – natural/artificial harmonic 

Tuning B F# B E G# C# 

Intro (0:00) 
|---------------------------------| 
|---------------------------------| 
|-------------1111----------------| 
|-----------------3333------------| 
|-0--0--0--0----------55554444-0--| 
|-0--0--0--0-------------------0--| 

Riff 1 (0:03) play twice 
|------------------------------------------------------------------| 
|------------------------------------------------------------------| 
|-------------------------------------------------1111-------------| 
|-----------------------------------------------------3333---------| 
|-------------0000------------0000------------0000--------55554444-| 
|-000000003333----000000003333----000000003333---------------------| 
 ................................................ 

Riff 2 (0:11) 
|------------------------------| 
|------------------------------| 
|------------------------------| 
|------------------------------| 
|-0--5-7-0--5-7-0--5-7-0--5-7--| 
|-0--5/7-0--5/7-0--5/7-0--5/7--| 

Riff 3 (0:14) play 4 times 
|----------------| 
|----------------| 
|----------------| 
|----------------| 
|-0--7-5-0-3-5-7-| 
|-0--7-5-0-3-5-7-| 


Riff 4 (0:22) play 4 times 
|-------------| 
|-------------| 
|---------1---| 
|-----3-------| gtr 1 chorus FX 
|---0---0---0-| 
|-0-----------| 

|-------------| 
|-------------| 
|-------------| 
|-------------| 
|-(0)---------| gtr 2 distortion carried from 
|-(0)---------| last riff 


Fill 1 (0:27) 
|---------------------| 
|---------------------| 
|-1111----------------| 
|-----3333------------| 
|---------55554444-0--| 
|------------------0--| 


Riff 1 x 1 (0:29) 
Riff 2 x 1 (0:36) 
Riff 3 x 2 (0:40) 

Riff 5 (0:51) 
|------------------------------| 
|------------------------------| 
|------------------------------| 
|------------------------------| 
|----3"-5"----3"-5"-----3"-5"--| 
|-7"-------7"-------7"---------| 
  .  .  .  .  .  .  .   .  . 

Riff 6 (till end) 
|--------------------| 
|--------------------| 
|--------------------| 
|--------------------| 
|-2---3---1---2------| 
|-2-2-3-3-1-1-2-5555-| 
    .   .   .   ...

End.
Suggest correction
Give kudos to tab author, rate the tab!
1 2 3 4 5
comments
print report bad tab
guest
You may want to rate the tab now too:
select rating
Wanna post a correction for this tab? Suggest correction