Oops, an error
Loading. Please wait.

Slowly Raped With A Chainsaw Tab

version 2
version 2

Whole song

Interactive

95 views 1 this week
no commentswrite comment
1 2 3 4 5
please rate
add to favorites
launch autoscroll
font size
0
reset
how to read this tab
guitar tuner
Tab Pro tools
  • play this tab
  • loop segment
  • change instrument
  • show fretboard
  • metronome
×
Best way to learn
"Slowly Raped With A Chainsaw"
Autoscroll
slow
fast
+/-
esc
set tempo
stop
Contributor
Band: Fuck...I'm Dead
Album: Bring On The Dead
Song: Slowly Raped With A Chainsaw



Code:
. - palm mute           / - slide up to
\ - slide down to       x – Staccato
h - hammer on           p - pull off
, - slight palm mute    () - ghost note, sustained note
" - tremolo note        <> - Trill
L – left channel only   R – right channel only
* - see comment

Suffixes for bend
f - full bend       h - half bend
q - quarter bend    t - tap bend
^ - Hold bend       r - release bend
~ - vibrato bend

Suffixes for harmonic
ph - pinched harmonic   n – natural/artificial harmonic

Tuning B F# B E G# C#

Riff 1 (0:00)
|--------------------------------------------------------|
|--------------------------------------------------------|
|--------5-4-2-----------5-4-2---------------------------|
|------4-------5-4-3---4-------6-5-4---------2------7ph--|
|-7--0---------------0---------------2-3-2---3-----------|
|-7----------------------------------2-3-2------222------|
  .                                             ...

Riff 2a (0:05)
|----------------------------------|
|----------------------------------|
|----------------------------------|
|---------------------------4------|
|---------112200------------2--4-4-|
|-22332233------5522332233--2--4-4-|
                               . .
Riff 2b
|------------------------------------|
|------------------------------------|
|------------------------------------|
|------------------------------------|
|---------112200----------112200---2-|
|-22332233------5522332233------55-2-|

Riff 3 (0:14) play 4 times
|------------------|
|------------------|
|-----554422-------|
|---44------665544-|
|-00---------------|
|------------------|

Fill 1 (0:21)
|-------------|
|-------------|
|-------------|
|----------3--|
|----------3--|
|-2-33332-----|
  . ....

Riff 2a x 1 (0:23)
Riff 2b x 1 (0:26)

Fill 2 (0:30)
----------|
----------|
----------|
-----3----|
-2---1----|
-2--------|

Riff 4 (0:32) play 4 times
|-------------------|
|-------------------|
|-------------------|
|----------2--------|
|----------3---3ph--|
|-3333332----2------|
  ......     .

End.
comments
We did not receive enough feedback on this tab! Please rate:
print report bad tab
1 2 3 4 5
I want to post or [tab]
guest
You may want to rate the tab now too:
select rating
Please do not post tabs as comments. Select "correction" instead!