Oops, an error
Loading. Please wait.

Hemorrhage In My Hands Bass Tab

version 3
version 3

Whole song

Interactive

by Fuel
1,270 views 15 this week
no commentswrite comment
1 2 3 4 5
please rate
add to favorites
launch autoscroll
font size
0
reset
guitar tuner
Tab Pro tools
  • play this tab
  • loop segment
  • change instrument
  • show fretboard
  • metronome
×
Best way to learn
"Hemorrhage In My Hands"
Autoscroll
slow
fast
+/-
esc
set tempo
stop
Contributor
Difficulty
Tuning
novice
D# G# C# F# A# D#
This is the bass tab for Fuel's hit song "Hemorrhage" off of their album, Something Like Human. 


Intro: (0:00)

|-----------------------------------|------------------------------|------------------------------|
|-----------------------------------|------------------------------|------------------------------|
|-2-----2-------0-----0--------0----|------------------------------|------------------------------|
|-----------------------------------|-(0)--------------------------|-(0)--------------------------|

Verse: No bass

1st Chorus: (0:35)

|-----------------------------------|------------------------------|------------------------------|
|-----------------------------------|------------------------------|------------------------------|
|------------------5----------------|------------------------------|--------------5---------------|
|--0--------------------------------|-(5)--------------------------|--0---------------------------|

|-----------------------------------|------------------------------|------------------------------|
|-----------------------------------|------------------------------|------------------------------|
|--(0)------------------------------|---------------5----5-----5---|------------------------------|
|-----------------------------------|--3-------3/------------------|-5-----5\2-------2-------2----|

|-----------------------------------|------------------------------|
|-----------------------------------|------------------------------|
|-----------------2--3--5----5----5-|------------------------------|
|--3-----------3--------------------|--2-----2-----2-----2---2--2--|

Pre-verse: (1:00)
                                      1st Ending                     2nd Ending
|-----------------------------------|------------------------------|------------------------------|
|.----------------------------------|-----------------------------.|------------------------------|
|.--2---2------2--------------------|----------------------4---5--.|----------------------4----5--|
|------------------------5----------|--3--3--------5---------------|--3--3----/5------------------|

2nd Verse: (1:13)

|-----------------------------------|------------------------------|
|-----------------------------------|------------------------------| Play 3 1/2 times
|-----------------------------------|------------------------------|
|--7--7-------------5---------------|--3--3----/5------5-------5/7-|

|-----------------------------------|
|-----------------------------------|
|-----------------------------------|
|--3--3-------------5----------3--2-|

2nd Chorus: (1:38)

|-----------------------------------|------------------------------|
|-----------------------------------|------------------------------|
|--------------------5-------5\-----|-0-----------5----4---2---0---|
|----0------------------------------|------------------------------|

|-----------------------------------|------------------------------|------------------------------|
|-----------------------------------|------------------------------|------------------------------|
|-------------5-------5-------5-----|-0----------------------------|----------2-3-5----5---7-5----|
|---0-------------------------------|----------2--------2------2---|--3-----3------------------7\-|

|-----------------------------------|------------------------------|------------------------------|
|-----------------------------------|------------------------------|------------------------------|
|-----------------------------------|-----------2-3-5----5---7-5---|------------------------------|
|--5-------5\2------2-------2-------|--3------3------------------7\|-2-----2---2--2----2-2---2-2-|

Bridge: (2:03)

|-----------------------------------|------------------------------|------------------------------|
|-----------------------------------|------------------------------|------------------------------|
|--------------------2------2-2-----|-2---2--2-4-4-4-4-5-5-5-5-4---|-5--5-5-7-7-7-7/9-9-9\--------|
|--3----3--3--5----5-------------5--|------------------------------|------------------------0-----|

|-----------------------------------|------------------------------|
|-----------------------------------|------------------------------|
|-----------------------------------|------------------------------|
|---2-----2-----2-----2-------------|--(2)----------------------/--|

Guitar Solo: (2:19)

|-----------------------------------|------------------------------|
|-----------------------------------|------------------------------| Play 3x
|-----------------------------------|-------------------4-----5----| and then
|-7------7\5-------5-------------\--|--3-------/5------------------| 

|-----------------------------------|--------------------------------|
|-----------------------------------|--------------------------------|
|--2---2-2--2-2-2-2-4-4-4-4-4-4-4-4-|-5-5-5-5-7-7-7-7-9-9-9-9-9\-----|
|-----------------------------------|----------------------------3-2-|

3rd Chorus: (2:44)

|-----------------------------------|------------------------------|------------------------------|
|-----------------------------------|----------------^-------------|------------------------------|
|----------------5-------5--------\-|-0----------0--4-5---4--------|-----------5----------5----\--|
|--0--------------------------------|------------------------7--5\-|--0---------------------------|

|-----------------------------------|------------------------------|------------------------------|
|-----------------------------------|------------------------------|------------------------------|
|-0------0--------------------------|----------2-3-5----5---7-5----|------------------------------|
|-------------2------2--2---2-----2-|-3------3------------------7--|--5----5\2-----2------2-------|

|-----------------------------------|----------------------------------|
|-----------------------------------|----------------------------------| Play 6x
|--------------2-3-5----5----7-5----|-----------2----------------------|
|--3---------3-------------------7--|-5-------5---5-2---2-2--2-2-2-2---|

Ending:

|-----------------------------------|----------------------------------|
|-----------------------------------|----------------------------------|
|-----------------5-------5------0--|----(0)---------------------------|
|--3-------3------------------------|----------------------------------|
comments
We did not receive enough feedback on this tab! Please rate:
print report bad tab
1 2 3 4 5
I want to post or [tab]
guest
You may want to rate the tab now too:
select rating
Please do not post tabs as comments. Select "correction" instead!