Oops, an error
Loading. Please wait.

Leave The Memories Alone Bass Tab

by Fuel
193 views 1 this week
no commentswrite comment
1 2 3 4 5
3 more votes to show rating
add to favorites
launch autoscroll
font size
0
reset
guitar tuner
Autoscroll
slow
fast
+/-
esc
set tempo
stop
Help us to improve Ultimate-Guitar.com Take our survey!
×
Author
Difficulty
“Leave The Memories Alone” bass tabs
Written by: bass_masta_1992
Tuning: EADG 

Intro (no bass until 0:35): (Repeat 6x)

G:----------|
D:-0~-------|
A:----0~----|
E:-------3~-|

Verse: (Repeat 9x)

G:-------------------------------|
D:-0--0--0-----------------------|
A:-----------0~------------------|
E:---------------3--3--3--3--3--3|

Pre-Chorus:

G:-------------------------------------------------------------------|
D:-------------------------------------------------------------------|
A:-0-0-0-0-0-0-0-0--2-2-2-2-2-2-2-2--3-3-3-3-3-3-3-3-----------------|
E:---------------------------------------------------3-3-3-3-3-3-3-3~|

Chorus I: (Repeat 5x)

G:----------------------------|
D:-0--0--0--------------------|
A:---------0~-----------------|
E:------------3--3--3--3--3--3|

Bridge: (Repeat 2x)

G:--------------------------------------------------|
D:--------------------------------------------------|
A:-2-2-2-2-2-2-2-2--0-0-0-0-0-0-0-0-----------------|
E:----------------------------------3-3-3-3-3-3-3-3~|

Chorus II/Solo/Outro: (Repeat 14x)

G:-------------------------------|
D:-0--0--0-----------------------|
A:-----------0~------------------|
E:---------------3--3--3--3--3--3|
Suggest correction
Give kudos to tab author, rate the tab!
1 2 3 4 5
comments
print report bad tab
guest
You may want to rate the tab now too:
select rating
Wanna post a correction for this tab? Suggest correction