Oops, an error
Loading. Please wait.

Shimmer Bass Tab

version 2
version 2

Whole song

Interactive

by Fuel
4,583 views 3 this week
no commentswrite comment
1 2 3 4 5
2 more votes to show rating
add to favorites
launch autoscroll
font size
0
reset
guitar tuner
Autoscroll
slow
fast
+/-
esc
set tempo
stop
Help us to improve Ultimate-Guitar.com Take our survey!
×
Pre chorus fill

g  /--------------------------------4---2----------------------\----||
d ||.--------------------0---2---5---------4---5---4-------------.--||
a ||.---------0-0--2-3----------------------------------5------.----||
e  \--0-0-3---------------------------------------------------------||

g  /---------------------------------------------------------\-||
d ||.-------------------------------------------------------.--||
a ||.--00--233--3----------------------------------15--15---.--||
e  \-----------------------------------------------------------||

chorus

g  /------------------------------4---------------------------\-----||
d ||.------------------------4-5-----5-4--5----------------------.--||
a ||.—33—5--77--5--33--5--7---------------------------------.-------||
e  \----------------------------------------------------------------||


g  /---------------------------------------------------------\--------||
d ||.----------------------------4--5--7-5--4--5--4----------------.--||
a ||.—-33--5--77---5--33--5--7-----------------------------.----------||
e  \------------------------------------------------------------------||

        solo
g  /---------------------------------------------------------\---||
d ||.--------7--6---------------------------------------------.--||
a ||.--55----------7---5---7-7---0 -x4----------------------.----||
e  \-----------=-------------------------------------------------||
Suggest correction
Give kudos to tab author, rate the tab!
1 2 3 4 5
comments
print report bad tab
guest
You may want to rate the tab now too:
select rating
Wanna post a correction for this tab? Suggest correction