Oops, an error
Loading. Please wait.

Shimmer Bass Tab

version 3
version 3

Whole song

Interactive

by Fuel
7,476 views 15 this week
1 commentread comment
1 2 3 4 5
accurate
x 6
add to favorites
launch autoscroll
font size
0
reset
guitar tuner
Tab Pro tools
  • play this tab
  • loop segment
  • change instrument
  • show fretboard
  • metronome
×
Best way to learn
"Shimmer"
Autoscroll
slow
fast
+/-
esc
set tempo
stop
Contributor
Difficulty
intermediate
-------------------------------------------------------------------------------
			                                   SHIMMER - Fuel
-------------------------------------------------------------------------------
I know there's been a few tabs of this song already, but I'm going to throw my hat into the ring.
Let me know what you think.  Hope it helps!

Tabbed By: Tandy Jake
E-mail: TandyJake@gmail.com

Tuning:Standard (E A D G)

Bass doesn't come in until around 1:00 into the song. 

1:00                                                              (X2)
G|------------------------------------------------------------------|
D|------------------------------------------------------------------|
A|-303--3--3--505-5-5h77-5-------303--3--3--505-5-5h77-5------------|
E|------------------------------------------------------------------|

1:18
G|------------------------------------------------------------------|
D|------------------------------------------------------------------|
A|--3-3---5---7--7--7---5-5------3-3---5---7--7--7---5-5------------|
E|------------------------------------------------------------------|

1:26
G|------------------------------------------------------------------|
D|------------------------------------------------------------------|
A|-303--3--3--505-5-5h77-5-------303--3--3--505--5-5-3-3-0----------|
E|------------------------------------------------------------------|

1:36
G|-----------------------------------------------------------------|
D|------------------------------10-9-7-5--5------------------------|
A|--------------------------7-9----------7-------------------------|
E|-----0-0--3/5-5---7-8-10-------------------0-0--3/5-55-077778----|

{Rest until 2:01}

2:01  (Those are 12's)
G|---------------------|
D|-5/121212121212\-----|
A|---------------------|
E|---------------------|

2:03                                                                                         
G|----------------------------------------4------------|
D|------------------------------------4-5----5-4-5-----|
A|-303--5--7--7-7---5-5----303--5--7-------------------|
E|-----------------------------------------------------|

G|-----------------------------------------------------|
D|------------------------------------4-5-7-5-4---4----|
A|-303--5--7--7-7---5-5----303--5--7-----------7-------|
E|-----------------------------------------------------|

2:19                   (X3)
G|------7-6---------------|
D|----------7-5--7-7-7----|
A|-5----------------------|
E|------------------------|

 2:31                  (X1)
G|------7-6---------------|
D|----------7-5-7p5h7\----|
A|-5----------------------|
E|------------------------|

2:35
G|----------------------------------------4-----------|
D|------------------------------------4-5----5-4-5----|
A|-303--5--7--7-7---5-5----303--5--7------------------|
E|----------------------------------------------------|

G|----------------------------------------------------|
D|------------------------------------4-5-7-5-4---4---|
A|-303--5--7--7-7---5-5----303--5--7-----------7------|
E|----------------------------------------------------|

3:10
G|-----------------|
D|-----------------|
A|-5-------3-------|
E|-----------------|

| /  slide up
| \  slide down
| h  hammer-on
| p  pull-off
| ~  vibrato
| +  harmonic
| x  Mute note
===============================================================================
comments
print report bad tab
1 comment total.
0 reply
lbra73 wrote on February 26 2012, 10:24 am

thanks, this helps a lot!

I want to post or [tab]
guest
You may want to rate the tab now too:
select rating
Please do not post tabs as comments. Select "correction" instead!