Oops, an error
Loading. Please wait.

Spread The Fire Tab

1,014 views 1 this week
no commentswrite comment
1 2 3 4 5
please rate
add to favorites
launch autoscroll
font size
0
reset
how to read this tab
guitar tuner
Tab Pro tools
  • play this tab
  • loop segment
  • change instrument
  • show fretboard
  • metronome
×
Best way to learn
"Spread The Fire"
Autoscroll
slow
fast
+/-
esc
set tempo
stop
Difficulty
intermediate
 http://www.fueledbyfire.webs.com/



Riff 1:


1--------------------------------------|
2--------------------------------------|
3---------------4----5----7----7-7-----|
4----------2----4----5----7----7-7-----|
5----------2----2----3----5----5-5-----|
6----------0---------------------------|




Riff 2:

1-------------------------------------------------------------------------|
2-------------------------------------------------------------------------|
3-------------------------------------------------------------------------|
4---------------------4-/3---------------2--------------4/5---------------|
5-----2---------------2/-1---------------2--------------2/3-----------5-0-|
6-----0--0-0-0-0-0-0--------0-0-0-0-0-0--0--0-0-0-0-0-0------0-0-0-0--3-2-|




Riff 3:

1-------------------------------------------------|
2-------------------------------------------------|
3-------------------------------------------------|
4-------------------------------------------------|
5----7--6--5---------2----------------------------|
6----5--4--3--0-1-3--0--0-0-0--0-0-0--0-0-0--0----|



Riff 4:

1------------------------------------------------|
2------------------------------------------------|
3------------------------------------------------|
4---------------------------------5--8--4--7-----|
5---------------------------------3--6--2--5-----|
6-----0-0-0--0-0-0--0-0-0--0-0-0-----------------|


Riff 5:

1---------------------------------------|
2---------------------------------------|
3---------------------------------------|
4----9-9--9--9-9----5--8--4--7----------|
5----7-7--7--7-7----3--6--2--5----------|
6---------------------------------------|



Riff 6: ( Durante el solo )

1----------------------------------------------------------------|
2----------------------------------------------------------------|
3----------------------------------------------------------------|
4-------9---------------------------7----------------------------|
5-------7--7-7-7-7-7-7-7-7-7-7-7-7--5--5-5-5-5-5-5-5-5-5-5-5-5---|
6----------------------------------------------------------------|


Riff 7: ( Durante el solo )

1-----------------------------------------------------------|
2-----------------------------------------------------------|
3-----------------------------------------------------------|
4---9-9-9-9-9----12--11-9--7----5-5-5-5-5---7-7-7-7-7-7-7---|
5---7-7-7-7-7----10--9--7--5----3-3-3-3-3---5-5-5-5-5-5-5---|
6-----------------------------------------------------------|


Riff 8:


1------------------------------------------------|
2------------------------------------------------|
3------------------------------------------------|
4------------------------------------------------|
5---7-/14-/12-/10-/9-/7------14-/12-/10-/9-9-----|
6------------------------------------------------|

1------------------------------------------------|
2------------------------------------------------|
3------------------------------------------------|
4------------------------------------------------|
5---/14-/12-/10-/9-/10--------14-/12/-10/-9-/10--|
6------------------------------------------------|

1------------------------------------------------|
2------------------------------------------------|
3------------------------------------------------|
4------------------------------------------------|
5---/14-/12-/10-/9-/7--------/14-/12-/10-/9-79---|
6------------------------------------------------|

1------------------------------------------------|
2------------------------------------------------|
3------------------------------------------------|
4------------------------------------------------|
5----/14-/12-/10-/9-/10--------------------------|
6------------------------------------------------|


Riff 9:

1-----------------------------------------------------------------|
2-----------------------------------------------------------------|
3-----------------------------------------------------------------|
4----------------3-------------5-------------7-------7-8-9--------|
5----------------1-------------3-------------5-------5-6-7--------|
6----0-0-0-0-0-0---0-0-0-0-0-0---0-0-0-0-0-0---0-0-0--------------|


Final:


1----------------------------|
2----------------------------|
3----------------------------|
4----------------------------|
5-----7--6--5--------2-------|
6-----5--4--3--0-1-3-0-------|



Estructura de la canción:


- Riff 1: x3
- Riff 2: x4
- Riff 3: x9
- Riff 2: x2
- Riff 3: x9
- Riff 2: x2
- Riff 4: x4
- Riff 5: x8
- Riff 6: x8 } Durante el solo
- Riff 7: x4 } Durante el solo
- Riff 8:    Este es el punteo que hacen todas las guitarras después del solo
- Riff 9: x4
- Riff 2: x4
- Final
comments
We did not receive enough feedback on this tab! Please rate:
print report bad tab
1 2 3 4 5
I want to post or [tab]
guest
You may want to rate the tab now too:
select rating
Please do not post tabs as comments. Select "correction" instead!