Oops, an error
Loading. Please wait.

Arpeggiator Bass Tab

5,021 views 15 this week
3 commentsread comments
1 2 3 4 5
2 more votes to show rating
add to favorites
launch autoscroll
font size
0
reset
guitar tuner
Autoscroll
slow
fast
+/-
esc
set tempo
stop
Help us to improve Ultimate-Guitar.com Take our survey!
×
Author
Difficulty
intermediate
----------------------------------------------------------------------------
			    Arpeggiator - Fugazi
----------------------------------------------------------------------------

Tabbed By : Paul Cox
e-mail: paul_cox1@hotmail.co.uk
This song is the tenth track on Fugazi's album "End Hits."
Tuning: EADG

This is a nice line once you've got it down!

Main Riff
G|-------------------9--9-9-9---9--------------|
D|-------------9-6-9--9-------9---9-6-9-6--6---|
A|----7-11-7-11--------------------------7--7--| X lots
E|--0------------------------------------------|

Riff 2
G|-----------------------------|
D|-----------------------------|
A|-------------------------5-5-|
E|--0--0--0--0--5-5-5-4-4-4----|

Riff 3
G|------------------------------------|
D|------------------------------------|
A|----9-9-9-9-9-9-9-9-1010101011111111|
E|----7-7-7-7-7-7-7-7-8-8-8-8-9-9-9-9-|

(I'm not 100% on this bit as I am sitting here without the song available to listen to, 
hey, it's the easiest part and the rest is pretty much correct so don't be too harsh!)

Play it with a PICK!

Please leave a rating!

http://joelally.com/
http://www.myspace.com/joelallymusic
http://www.dischord.com/bands/joelally.shtml
Suggest correction
Give kudos to tab author, rate the tab!
1 2 3 4 5
comments
print report bad tab
3 comments total.
0 reply
TimeCard 10 Mar 07, 2008 10:32 PM

hey man. after playing this for myself, I've found that the stretch from 7 - 11 is ridiculous.

it's much easier top play the sixth fret on D instead. also? it makes it so you can play faster with your fingers.

0 reply
GentlemenJack 10 May 12, 2014 06:45 AM, edited at 06:47 am

Great tab, all the right notes, pre sure Riff 2 starts on the A and ends on the E though. SO it would be likeG---------------------------------D---------------------------------A-------------5-5-----------------E---5-5-5-4-4-----0---0---0---0---But besides that all looks good.(doubly agree with playing it with a pick)

0 reply
GentlemenJack 10 May 12, 2014 06:48 AM

Ugh, why does it always do that...
G---------------------------------
D---------------------------------
A-------------5-5-----------------
E---5-5-5-4-4-----0---0---0---0---

guest
You may want to rate the tab now too:
select rating
Wanna post a correction for this tab? Suggest correction