Oops, an error
Loading. Please wait.

Bed For The Scraping Bass Tab

version 2
version 2

Whole song

Interactive

1,303 views 9 this week
no commentswrite comment
1 2 3 4 5
please rate
add to favorites
launch autoscroll
font size
0
reset
guitar tuner
Autoscroll
slow
fast
+/-
esc
set tempo
stop
Help us to improve Ultimate-Guitar.com Take our survey!
×
Author
Difficulty
novice
BED FOR THE SCRAPING
by
FUGAZI

Tabbed by: Cameron LeViere

Tuning: Standard


|MAIN RIFF|

G------------------------------| 
D--------5-3--3-3-3-3----------| 
A----------------------3-3-3---| 
E-3-3-3----------------------6-| 

|OTHER THING|

G-----------------| 
D------------3-0--| x3
A-----------------| 
E-3-3-3-3--3------| 

G------------| 
D------------| 
A-5-5--5-3-3-| 
E------------| 

|BREAKDOWN-ISH PART THING|

G--------------------------| 
D--------------------------| 
A-0-0-0--3~-3--0-0-0--5~-5-| 
E--------------------------| 

|ENDING|

G-----| 
D-----| 
A-----| 
E-3-3-| 
Suggest correction
Give kudos to tab author, rate the tab!
1 2 3 4 5
comments
print report bad tab
guest
You may want to rate the tab now too:
select rating
Please do not post tabs as comments. Select "correction" instead!