Oops, an error
Loading. Please wait.

Bed For The Scraping Tab

version 2
version 2

Whole song

Interactive

2,059 views 7 this week
no commentswrite comment
1 2 3 4 5
please rate
add to favorites
launch autoscroll
font size
0
reset
how to read this tab
guitar tuner
Autoscroll
slow
fast
+/-
esc
set tempo
stop
Help us to improve Ultimate-Guitar.com Take our survey!
×
Contributor
BED FOR THE SCRAPING
by
FUGAZI


Part One:
e|--8-9-10------8-8----|-----------------------|
B|---------8-11-----11-|-----------------------|
G|---------------------|--10p9h10p9h12p9h10p9--|
D|---------------------|-----------------------|
A|---------------------|-----------------------|
E|---------------------|-----------------------|

Note: At this part, the guy that isn't Ian taps this part, while Ian plays it as tabbed above.

Part two:
e|--6-----6-3------------|-------------------|
B|----3-5-----6-5h6p5----|--6p5h6p5h8p5h6p5--|
G|-----------------------|-------------------|
D|-----------------------|-------------------|
A|-----------------------|-------------------|
E|-----------------------|-------------------|


Part three:
e|-------------------------|
B|-------------------------|
G|-2-2-2--5--5-2-2-2-7--7--|
D|-2-2-2--5--5-2-2-2-7--7--|
A|-0-0-0--3~-3-0-0-0-5~-5--|
E|-------------------------|


Part four (around 2:18):
e|------------------|
B|------------------|
G|-7-7-7-7-7/8-8\7--|
D|-x-x-x-x-x-x-x-x--|
A|-5-5-5-5-5/6-6\5--|
E|------------------|

e|-----------------------------------------------------------------|
B|-----------------------------------------------------------------|
G|-7-7-7-7-7/12-12-12-12-12-13-13-13-13-13-13-10-10-10-10/12-12\7--|
D|-x-x-x-x-x-x--x--x--x--x--x--x--x--x--x--x--x--x--x---x-x--x--x--|
A|-5-5-5-5-5/10-10-10-10-10/11-11-11-11-11-11\8--8--8---8/10-10\5--|
E|-----------------------------------------------------------------|
Suggest correction new What's this?
You can suggest a correction to this tab. Community and Mods will review your correction and vote to approve or reject it.
comments
We did not receive enough feedback on this tab! Please rate:
print report bad tab
1 2 3 4 5
guest
You may want to rate the tab now too:
select rating
Please do not post tabs as comments. Select "correction" instead!