Oops, an error
Loading. Please wait.

Bulldog Front Bass Tab

969 views 6 this week
no commentswrite comment
1 2 3 4 5
2 more votes to show rating
add to favorites
launch autoscroll
font size
0
reset
guitar tuner
Autoscroll
slow
fast
+/-
esc
set tempo
stop
Help us to improve Ultimate-Guitar.com Take our survey!
×
Author
Difficulty
novice
Song: Bulldog Front
Artist Fugazi
Album: 13 Songs (1989)
Bassist: Joe Lally
Tuning: Standard (EADG)

VERSES:

G|----------------------------------------------------|
D|----------------------------------------------------|
A|--6--6--6--6--6--6--6--6---7--7--7--7--7--7--7--7---|
E|----------------------------------------------------|
^ play each note STACATTO

CHORUS:

G|--------------------------------------------|
D|--------------------------------------------|
A|--------------------------------------------|
E|--9-9-9--10\5--5--5--5--5--5--5--5--5--5----|

POST CHORUS(PRE BRIDGE): when Ian goes "You wanna figure it out..."

G|------------------------------|--------------------------------|
D|------------------------------|--------------------------------|
A|------------------------------|--------------------------------|
E|--9-9-9--10\7--7--7--7--7--7--|--9-9-9--10--0--0--0--0--0--0---|

BRIDGE: "Let's knock and check to see..."

G|----------|----------------------|
D|----------|----------------------|
A|----------|-------7--7--7--7--7--|
E|--5----0--|--5-------------------|
^on the second part (which comes in right before the final chorus), play the 7's 
stacatto and quietly (you could even crescendo up into the final chorus if you wanted).

The OUTRO is the same as the verses.

order:
VERSE
CHORUS
VERSE
CHORUS
POST CHORUS
BRIDGE
CHORUS
OUTRO (VERSE)

and that is it!
Suggest correction
Give kudos to tab author, rate the tab!
1 2 3 4 5
comments
print report bad tab
guest
You may want to rate the tab now too:
select rating
Wanna post a correction for this tab? Suggest correction