Oops, an error
Loading. Please wait.

Cashout Bass Tab

version 2
version 2

Whole song

Interactive

1,514 views 6 this week
no commentswrite comment
1 2 3 4 5
please rate
add to favorites
launch autoscroll
font size
0
reset
guitar tuner
Autoscroll
slow
fast
+/-
esc
set tempo
stop
Help us to improve Ultimate-Guitar.com Take our survey!
×
#----------------------------------PLEASE NOTE---------------------------------#
#This file is the author's own work and represents their interpretation of the #
#song. You may only use this file for private study, scholarship, or research. #
#------------------------------------------------------------------------------#

CASHOUT (Bassline)
As recorded by Fugazi
(From the 2001 Album THE ARGUMENT)

Transcribed by Emlyn Jones
	

Words by Ian MacKaye Music by Fugazi
Arranged by Fugazi

Gtr I (E A D G) - 'Joe Lally'

 Intro
  Q=108
               $       To Coda
 4/4
  Gtr I
  Wx4          Wx3          W
|------------|------------|-------||
|------------|------------|-------||
|------------|------------|-------||
|------------|------------|-------||


   Verse
    E E E E E E E E   E E E E E e e E   E E E E E E E E   E E E E E e e E
||------5-------6---|-----7-----------|-----5-------6---|-----7------------||
||o---6---6---6---6-|---6---6---6-4-6-|---6---6---6---6-|---6---6---6-4-6-o||
||o-----------------|-----------------|-----------------|-----------------o||
||------------------|-----------------|-----------------|------------------||


    &
    E E E E E E E E   E E E E E e e E   E E E E E E E E   E E E E E e e E
||------5-------6---|-----7-----------|-----5-------6---|-----7------------||
||o---6---6---6---6-|---6---6---6-4-6-|---6---6---6---6-|---6---6---6-4-6-o||
||o-----------------|-----------------|-----------------|-----------------o||
||------------------|-----------------|-----------------|------------------||


   Chorus
    E E E E E E E E   E E E E E e e E   E E E E E E E E
||------5-------6---|-----7-----------|-----5-------6---|
||o---6---6---6---6-|---6---6---6-4-6-|---6---6---6---6-|
||o-----------------|-----------------|-----------------|
||------------------|-----------------|-----------------|


 1.                  2.
                          D.S. al Coda
                                    ~~
  E E E E E e e E     E E E E E  E  Q
|-----7------------||-----7-8-9-11-14---||
|---6---6---6-4-6-o||---6---------------||
|-----------------o||-------------------||
|------------------||-------------------||


   Interlude
                                                                 ~~~~~~~~~~~
    Q  Q  E Q  E   +E  E Q  E E Q   7x Q  Q  E Q  E   +E  E Q    H      +W
||---------------|------------------||--------------|-----------------|--------|
||o-5--3--1-0----|-----1-1----1-1--o||-5--3--1-0----|-----1-1b3r=1----|-(1)----|
||o------------1-|-(1)-------------o||------------1-|-(1)-------------|--------|
||---------------|------------------||--------------|-----------------|--------|


  $$                                                       To Dbl. Coda
  Wx4          e e e e e e e e   e e e e e e e e   e e e e e e e e   W
|------------|-----------------|-----------------|-----------------|-------||
|------------|-----------------|-----------------|-----------------|-------||
|------------|-6-6-6-6S5-5-5-5S|=4-4-4-4S3-3-3-3S|=2-2-2-2S1-1-1-1-|-------||
|------------|-----------------|-----------------|-----------------|-5-----||


   Chorus
                                               D.S.S. al Dbl. Coda
    E E E E E E E E  7x E E E E E e e E   E E E E E E E E   E H..
||------5-------6----||-----7-----------|-----5-------6---|-----------||
||o---6---6---6---6-o||---6---6---6-4-6-|---6---6---6---6-|---6-------||
||o-----------------o||-----------------|-----------------|-----------||
||-------------------||-----------------|-----------------|-----------||


   Outro
    &&
    E E E E E E E E   E E E E E e e E   E E E E E E E E
||------5-------6---|-----7-----------|-----5-------6---|
||o---6---6---6---6-|---6---6---6-4-6-|---6---6---6---6-|
||o-----------------|-----------------|-----------------|
||------------------|-----------------|-----------------|


 1.,2.,3.            4Slower Q=88
                                    ~~
  E E E E E e e E     E E E E E  E  Q
|-----7------------||-----7-8-9-11-14---*|
|---6---6---6-4-6-o||---6---------------*|
|-----------------o||-------------------*|
|------------------||-------------------*|



Duration Legend
---------------
W - whole; H - half; Q - quarter; E - 8th; S - 16th; T - 32nd; X - 64th; a - acciaccatura
+ - note tied to previous; . - note dotted; .. - note double dotted
Uncapitalized letters represent notes that are staccato (1/2 duration)
Irregular groupings are notated above the duration line
Duration letters will always appear directly above the note/fret number it represents the
duration for.  Duration letters with no fret number below them represent rests.  Multi-
bar rests are notated in the form Wxn, where n is the number of bars to rest for.  Low
melody durations appear below the staff

Tablature Legend
----------------
 h   - hammer-on
 p   - pull-off
 b   - bend
 pb  - pre-bend
 r   - bend release (if no number after the r, then release immediately)
 /\  - slide into or out of (from/to "nowhere")
 s   - legato slide
 S   - shift slide
 - natural harmonic
[n]  - artificial harmonic
n(n) - tapped harmonic
 ~   - vibrato
 tr  - trill
 T   - tap
 TP  - trem. picking
 PM  - palm muting
\n/  - tremolo bar dip; n = amount to dip
 \n  - tremolo bar down
 n/  - tremolo bar up
/n\  - tremolo bar inverted dip
 =   - hold bend; also acts as connecting device for hammers/pulls
 <> - volume swell (louder/softer)
 x   - on rhythm slash represents muted slash
 o   - on rhythm slash represents single note slash

Misc Legend
-----------
 |  - bar
||  - double bar
||o - repeat start
o|| - repeat end
*|  - double bar (ending)
 :  - bar (freetime)
 $  - Segno
 &  - Coda
Tempo markers -  = BPM(8/16=s8/s16), where s8 = swing 8ths, s16 = swing 16ths

Suggest correction
Give kudos to tab author, rate the tab!
1 2 3 4 5
comments
print report bad tab
guest
You may want to rate the tab now too:
select rating
Wanna post a correction for this tab? Suggest correction