Oops, an error
Loading. Please wait.

Cashout Tab

version 2
version 2

Whole song

Interactive

1,783 views 10 this week
no commentswrite comment
1 2 3 4 5
please rate
add to favorites
launch autoscroll
font size
0
reset
how to read this tab
guitar tuner
Autoscroll
slow
fast
+/-
esc
set tempo
stop
Help us to improve Ultimate-Guitar.com Take our survey!
×
Author
tonedeafidiot 39,162
#----------------------------------PLEASE NOTE---------------------------------#
#This file is the author's own work and represents their interpretation of the #
#song. You may only use this file for private study, scholarship, or research. #
#------------------------------------------------------------------------------#

CASHOUT
As recorded by Fugazi
(From the 2001 Album THE ARGUMENT)

Transcribed by Emlyn Jones
	

Words by Ian MacKaye Music by Fugazi
Arranged by Fugazi

G#
4 3 1 1 1 4
	
B
x 2 1 4 0 2
	
A
x 0 2 2 2 0

Gtr I (E A D G B E) - 'Guy Piccioto'
Gtr II (E A D G B E) - 'Ian MacKaye'

 Intro
  Q=108
                                 $
  N.C.
 4/4
  Gtr I
     Q    H.        Wx3          E E Q.   E Q
|-----------------|------------|---------------|
|-----------------|------------|---------------|
|-----------------|------------|---------------|
|-----------------|------------|---------------|
|-----------------|------------|-----6------5--|
|-/(12)\----------|------------|---4------4----|
|
| Gtr II
|                                    ~~     ~~~~
|    W              Wx3          E E Q.   E Q
|-----------------|------------|---------------|
|-----------------|------------|---------------|
|-----------------|------------|---------------|
|-----------------|------------|---------------|
|-----------------|------------|-----6------5--|
|-----------------|------------|---4------4----|


                                 To Coda
                                      ~
  +E  E Q.   E Q    +E  E Q.   E Q    W
|-----------------|-----------------|-------||
|-----------------|-----------------|-------||
|-----------------|-----------------|-------||
|-----------------|-----------------|-------||
|-(5)---4------3--|-(3)---2------1--|-------||
|-----4------4----|-----4------4----|-5-----||
|
|~~~~~  ~~     ~~~~~~~~~  ~~     ~~~~~~~
| +E  E Q.   E Q    +E  E Q.   E Q    W
|-----------------|-----------------|-------||
|-----------------|-----------------|-------||
|-----------------|-----------------|-------||
|-----------------|-----------------|-------||
|-(5)---4------3--|-(3)---2------1--|-------||
|-----4------4----|-----4------4----|-5-----||


   Verse
    Q.   E H          Q     +E  Q   Q     +E
||-----------------|-----------------------------|
||o----------------|-----------------------------|
||-----------------|-----------------------------|
||--6----6S9-------|--6b8===(6)r6---9-----(9)\---|
||o----------------|-----------------------------|
||-----------------|-----------------------------|
|
|                                     |---3----|
|   H      E E E E   +Q      Q    Q   E E      E
||-----------------|-----------------------------|
||o----------------|-----------------------------|
||-----------------|-----------------------------|
||-----------------|------------------4-5------6-|
||o------------6---|-----------------------------|
||-----------7---7-|-(7)\------------------------|


   Q.   E Q.     E    Q     +E   Q   Q   +E
|-------------------|--------------------------||
|-------------------|-------------------------o||
|-------------------|--------------------------||
|--6----6S9---------|-6b8===(6)r=6---9---(9)\--||
|-------------------|-------------------------o||
|-------------------|--------------------------||
|
|  ~~~                               ~~
| +Q.   Q    E E E    Q      Q     E Q.
|-------------------|--------------------------||
|-------------------|-------------------------o||
|-------------------|--------------------------||
|-(6)---------------|--------6b8r==6S1---------||
|--------------6----|-------------------------o||
|------------7---7\-|--------------------------||


  &
  Wx4          Q.   E H          Q     +E  Q   Q     +E
|------------|----------------|-----------------------------|
|------------|----------------|-----------------------------|
|------------|----------------|-----------------------------|
|------------|------6S9-------|--6b8===(6)r6---9-----(9)\---|
|------------|----------------|-----------------------------|
|------------|----------------|-----------------------------|
|
|                                                |---3----|
| Wx4          H      E E E E   +Q      Q    Q   E E      E
|------------|----------------|-----------------------------|
|------------|----------------|-----------------------------|
|------------|----------------|-----------------------------|
|------------|----------------|------------------4-5------6-|
|------------|------------6---|-----------------------------|
|------------|----------7---7-|-(7)\------------------------|


   Q.   E Q.     E    Q     +E   Q   Q   +E
|-------------------|-------------------------||
|-------------------|-------------------------||
|-------------------|-------------------------||
|--6----6S9---------|-6b8===(6)r=6---9---(9)\-||
|-------------------|-------------------------||
|-------------------|-------------------------||
|
|  ~~~                               ~~
| +Q.   Q    E E E    Q      Q     E Q.
|-------------------|-------------------------||
|-------------------|-------------------------||
|-------------------|-------------------------||
|-(6)---------------|--------6b8r==6S1--------||
|--------------6----|-------------------------||
|------------7---7\-|-------------------------||


   Chorus
                                                    D.S. al Coda
    Gtr I
      ~~     ~~       ~~     ~~       ~~     ~~       ~~     ~~
    E Q.   E Q.     E Q.   E Q.     E Q.   E Q.     E Q.   E Q.
||----------------|---------------|---------------|----------------||
||o---------------|---------------|---------------|---------------o||
||----------------|---------------|---------------|----------------||
||--8-6----7-6----|-8-6----7-8----|-8-9----9-8----|-8-7----7-6-----||
||o---------------|---------------|---------------|---------------o||
||----------------|---------------|---------------|----------------||


   Interlude
    G5 F5 EbD5 Bb5     Eb5             G5 F5 EbD5 Bb5     Eb5
    Gtr II
                         ~      ~                                ~~~~~~~~~~~
    Q  Q  E Q  E   +E  E Q  E E Q   7x Q  Q  E Q  E   +E  E Q    H      +W
||---------------|------------------||--------------|-----------------|--------|
||o--------------|-----------------o||--------------|-----------------|--------|
||--7--5--3-2----|-----3-3----3-3---||-7--5--3-2----|-----3-3----3----|-(3)----|
||--5--3--1-0--3-|-(3)-1-1----1-1---||-5--3--1-0--3-|-(3)-1-1b3r=1----|-(1)----|
||o------------1-|-(1)-------------o||------------1-|-(1)-------------|--------|
||---------------|------------------||--------------|-----------------|--------|
|
|   Gtr I
|                        ~      ~                                ~~~~~~~~~~~
|   Q  Q  E Q  E   +E  E Q  E E Q   7x Q  Q  E Q  E   +E  E Q    H      +W
||---------------|------------------||--------------|-----------------|--------|
||o--------------|-----4-4----4-4--o||--------------|-----4-4----4----|-(4)----|
||--7--5--3-2----|-----3-3----3-3---||-7--5--3-2----|-----3-3----3----|-(3)----|
||--5--3--1-0--3-|-(3)-1-1----1-1---||-5--3--1-0--3-|-(3)-1-1b3r=1----|-(1)----|
||o------------1-|-(1)-------------o||------------1-|-(1)-------------|--------|
||---------------|------------------||--------------|-----------------|--------|


                                                       1.             2.
    $$                                                       To Dbl. Coda
    Gtrs I, II
                                                         ~~~~~~~~~~~~~~~~
    E E Q.   E Q    +E  E Q.   E Q    +E  E Q.   E Q    +W             W
||----------------|-----------------|-----------------|-------------||-------||
||o---------------|-----------------|-----------------|------------o||-------||
||----------------|-----------------|-----------------|-------------||-------||
||----------------|-----------------|-----------------|-------------||-------||
||o-----6------5--|-(5)---4------3--|-(3)---2------1--|-(1)--------o||-7-----||
||----4------4----|-----4------4----|-----4------4----|-------------||-5-----||


 Chorus
                                                      D.S.S. al Dbl. Coda
                   ~~     ~~         ~~     ~~       ~~     ~~       ~~~
  Wx2            E Q.   E Q.    5x E Q.   E Q.     E Q.   E Q.     E H..
|------------||-----------------||---------------|---------------|-----------||
|------------||o---------------o||---------------|---------------|-----------||
|------------||-----------------||---------------|---------------|-----------||
|------------||--8-6----7-6-----||-8-6----7-8----|-8-9----9-8----|-8-7-------||
|------------||o---------------o||---------------|---------------|-----------||
|------------||-----------------||---------------|---------------|-----------||


   Outro
    &&
    G5        F5    Eb5            D5                       Bb5
    Gtr II
      Q         Q     E              Q                        E
||--------------------------------------------------------------------|
||o-------------------------------------------------------------------|
||----7---------5-----3--------------2--------------------------------|
||----5---------3-----1--------------0------------------------3-------|
||o-----------------------------------------------------------1-------|
||--------------------------------------------------------------------|
|
|   Gtr I
|                     |----3----|    |----3----|
|     E    E    Q     S    S    S    S    S    S    S    S    S    S
||--<17>-<17>-<17>--<17>-<17>-<17>-<17>-<17>-<17>-<17>-<17>-<17>-<17>-|
||o-------------------------------------------------------------------|
||--------------------------------------------------------------------|
||--------------------------------------------------------------------|
||o-------------------------------------------------------------------|
||--------------------------------------------------------------------|


       Eb5
              ~~~~                                ~~~~
   +E    E    Q     E              E              Q                   7x
|---------------------------------------------------------------------||
|--------------------------------------------------------------------o||
|--------3----3--------------------3--------------3-------------------||
|--(3)---1----1--------------------1--------------1-------------------||
|--(1)---------------------------------------------------------------o||
|---------------------------------------------------------------------||
|
|                   |----3----|    |----3----|
|   E    E    Q     S    S    S    S    S    S    S    S    S    S    7x
|-<17>-<17>-<17>--<17>-<17>-<17>-<17>-<17>-<17>-<17>-<17>-<17>-<17>---||
|--------------------------------------------------------------------o||
|---------------------------------------------------------------------||
|---------------------------------------------------------------------||
|--------------------------------------------------------------------o||
|---------------------------------------------------------------------||


  G5        F5    Eb5            D5                       Bb5
    Q         Q     E              Q                        E
|-------------------------------------------------------------------|
|-------------------------------------------------------------------|
|---7---------5-----3--------------2--------------------------------|
|---5---------3-----1--------------0------------------------3-------|
|-----------------------------------------------------------1-------|
|-------------------------------------------------------------------|
|
|                   |----3----|    |----3----|
|   E    E    Q     S    S    S    S    S    S    S    S    S    S
|-<17>-<17>-<17>--<17>-<17>-<17>-<17>-<17>-<17>-<17>-<17>-<17>-<17>-|
|-------------------------------------------------------------------|
|-------------------------------------------------------------------|
|-------------------------------------------------------------------|
|-------------------------------------------------------------------|
|-------------------------------------------------------------------|


  Slower Q=88
       Eb5        A5
              ~~~~
   +E    E    Q    Q        Q
|-----------------17b17.5r=17--*|
|-----------------17b17.5r=17--*|
|--------3----3---14b14.5r=14--*|
|--(3)---1----1----------------*|
|--(1)-------------------------*|
|------------------------------*|
|
|   E    E    Q    Q        Q
|-<17>-<17>-<17>--17b17.5r=17--*|
|-----------------17b17.5r=17--*|
|-----------------14b14.5r=14--*|
|------------------------------*|
|------------------------------*|
|------------------------------*|



Duration Legend
---------------
W - whole; H - half; Q - quarter; E - 8th; S - 16th; T - 32nd; X - 64th; a - acciaccatura
+ - note tied to previous; . - note dotted; .. - note double dotted
Uncapitalized letters represent notes that are staccato (1/2 duration)
Irregular groupings are notated above the duration line
Duration letters will always appear directly above the note/fret number it represents the
duration for.  Duration letters with no fret number below them represent rests.  Multi-
bar rests are notated in the form Wxn, where n is the number of bars to rest for.  Low
melody durations appear below the staff

Tablature Legend
----------------
 h   - hammer-on
 p   - pull-off
 b   - bend
 pb  - pre-bend
 r   - bend release (if no number after the r, then release immediately)
 /\  - slide into or out of (from/to "nowhere")
 s   - legato slide
 S   - shift slide
 - natural harmonic
[n]  - artificial harmonic
n(n) - tapped harmonic
 ~   - vibrato
 tr  - trill
 T   - tap
 TP  - trem. picking
 PM  - palm muting
\n/  - tremolo bar dip; n = amount to dip
 \n  - tremolo bar down
 n/  - tremolo bar up
/n\  - tremolo bar inverted dip
 =   - hold bend; also acts as connecting device for hammers/pulls
 <> - volume swell (louder/softer)
 x   - on rhythm slash represents muted slash
 o   - on rhythm slash represents single note slash

Misc Legend
-----------
 |  - bar
||  - double bar
||o - repeat start
o|| - repeat end
*|  - double bar (ending)
 :  - bar (freetime)
 $  - Segno
 &  - Coda
Tempo markers -  = BPM(8/16=s8/s16), where s8 = swing 8ths, s16 = swing 16ths

Suggest correction new What's this?
You can suggest a correction to this tab. Community and Mods will review your correction and vote to approve or reject it.
comments
We did not receive enough feedback on this tab! Please rate:
print report bad tab
1 2 3 4 5
guest
You may want to rate the tab now too:
select rating
Please do not post tabs as comments. Select "correction" instead!