Oops, an error
Loading. Please wait.

Combination Lock Tab

version 2
version 2

Whole song

730 views 9 this week
no commentswrite comment
1 2 3 4 5
please rate
add to favorites
launch autoscroll
font size
0
reset
how to read this tab
guitar tuner
Autoscroll
slow
fast
+/-
esc
set tempo
stop
Help us to improve Ultimate-Guitar.com Take our survey!
×
Author
Artist: Fugazi
Song: Combination Lock

Got stuck figuring out the chord part and looked for any tabs that could help. Didn't 
find any that had that part so I figured it out as close as I could and added in the rest 
of the song as I heard it since it seems closer than the tabs I've seen.

This is my first tab but I think its pretty close

h: hammer on

1st part

e|------12-12-11-11h12-11-|------------11-11h12-11------|
B|-12-12------------------|-12-12-----------------------|
G|------------------------|-----------------------------|
D|------------------------|-----------------------------|
A|------------------------|-----------------------------|
E|------------------------|-----------------------------|
 |<---     x3         ----------------------------------|


2nd part

e|------------------------|----9999-9999-9999-9999------|
B|------------------------|----9999-9999-9999-9999------|
G|9-7-9-7-----------------|----7777-7777-7777-7777------|
D|-------9--9-9-7-9-7--7--|----7777-7777-7777-7777------|
A|-------------------9----|-----------------------------|
E|------------------------|-----------------------------|
 |<---     x7         ----------------------------------|


3rd part
e|-99999-66-6666-6-7---|----9999-9999-9999-9999------|
B|-99999-66-6666-6-7---|----9999-9999-9999-9999------|
G|-77777-44-4444-4-5---|----7777-7777-7777-7777------|
D|-77777-44-4444-4-5---|----7777-7777-7777-7777------|
A|---------------------|-----------------------------|
E|---------------------|-----------------------------|
 |<---    x3       ----------------------------------|

        Then it goes back to the second part
with the end played every fourth measure.
and after that it goes back to the intro
Listen to the track to hear how many times everything's
played and to get an idea of the little differences that
are tossed in there but this should be a good basic idea.
Suggest correction
Give kudos to tab author, rate the tab!
1 2 3 4 5
comments
print report bad tab
guest
You may want to rate the tab now too:
select rating
Please do not post tabs as comments. Select "correction" instead!