Oops, an error
Loading. Please wait.

Epic Problem Tab

3,787 views 21 this week
no commentswrite comment
1 2 3 4 5
excellent!
x 4
add to favorites
launch autoscroll
font size
0
reset
how to read this tab
guitar tuner
Autoscroll
slow
fast
+/-
esc
set tempo
stop
Help us to improve Ultimate-Guitar.com Take our survey!
×
Author
                              EPIC PROBLEM - FUGAZI

Tabbed by: Cowpatable

Tuning: Standard

************************************

| /   slide up
| \   slide down
| ~   vibrato
| +   harmonic
| x   Mute note
| //  Tremolo picking
| h.b Hold bend
| ()  Ghost note
| b   Bend
| pb  Pre-bend
| br  Bend release

************************************
_____________________________________________________________________________
INTRO
_____________________________________________________________________________

Guitar 1
                                  x6
e|----------------------------------||
B|----------------------------------||
G|----------------------------------||
D|----------------------------------||
A|-------------5-5-5----------------||
E|-7-7-7-6-6-6-------6-6-6-7-7-5-55-||
   pm==============================|
 
|---------------------------------|--------------------------------||
|---------------------------------|--------------------------------||
|---------------------------------|--------------------------------||
|---------------------------------|--------------------------------||
|-------------5-5-5---------------|--------------------3-3-3-------||
|-7-7-7-6-6-6-------6-6-6-7-7-5-5-|-/9-9-9-3-3-3-2-2-2-------2-2-1-||
 (gradually ease off palm muting)

Guitar2

  Rake====|  x24
e|------15-15-||
B|-----x---x--||
G|---12----12-||
D|--x---------||
A|-x----------||
E|------------||
_____________________________________________________________________________
VERSE
_____________________________________________________________________________

Guitar 1
___________________________________________________[x3]
                 x2 
e|-----------------|-----------------|----------------||
B|-----------------|-7-7-7-7-7-7-7-7-|----------------||
G|-----------------|-8-8-8-8-8-8-8-8-|----------------||
D|-----------------|-9-9-9-9-9-9-9-9-|----------------||
A|-7-7-7-7-7-7-7-7-|-----------------|--5-5-5-7-7-7-7-||
E|-7-7-7-7-7-7-7-7-|-----------------|--3-3-3-5-5-5-5-||
   pm=============|                     pm===========|

                 x2
||-----------------|---------------------------------||
||-----------------|-7-7-7-7-7-7-7-7-7-7-7-7-7-7-7-7-||
||-----------------|-8-8-8-8-8-8-8-8-8-8-8-8-8-8-8-8-||
||-----------------|-9-9-9-9-9-9-9-9-9-9-9-9-9-9-9-9-||
||-7-7-7-7-7-7-7-7-|---------------------------------||
||-7-7-7-7-7-7-7-7-|---------------------------------||
   pm=============|

Guitar 2 - Alternatively, instead of the unison bends you could play
           octaves or single notes at the same pitch.
_______________________________________________________________[x3]
                      x2               h.b========| h.b=========|
e|----19---19---19---19-|-----------------------------------------||
B|----------------------|--------------10-----10//--11------11//--||
G|-/16---16---16---16---|-14b16r14~----12b14-(14)//-13pb15-(15)//-||
D|----------------------|-----------------------------------------||
A|----------------------|-----------------------------------------||
E|----------------------|-----------------------------------------||

                      x2
||----19---19---19---19-|-------------------------||
||----------------------|-------------------------||
||-/16---16---16---16---|-14-14-14-14-14-14-14-14-||
||----------------------|-------------------------||
||----------------------|-------------------------||
||----------------------|-------------------------||
                        (staccato)
_____________________________________________________________________________
CHORUS
_____________________________________________________________________________

Guitar 1 & 2

Beat - 1 2 3 4|1 2 3 4|1 2 3 4|1 2 3 4| 1 2||

(Throw in some triplets at your leisure)
e|-----------------------|-----------------------|
B|-----------------------|-----------------------|
G|-----------------------|-----------------------|
D|-11--11---11-11-11-11--|-13-13-13-13-13-13-13--|
A|-0----0---0--0--0--0---|-0--0--0--0--0--0--0---|
E|-----------------------|-----------------------|
                                                                x4
|-------------------------|------------------------|------------||
|-------------------------|------------------------|------------||
|-------------------------|------------------------|------------||
|-14-14-14-14-14-14-14-14-|-14-14-14-14-14-13-13-13|14-14-14-14-||
|-0--0--0--0--0--0--0--0--|-0--0--0--0--0--0--0--0-|0--0--0--0--||
|-------------------------|------------------------|------------||

_____________________________________________________________________________
1st POST CHORUS
_____________________________________________________________________________

Guitar 1
                                  x3
e|----------------------------------||
B|----------------------------------||
G|----------------------------------||
D|----------------------------------||
A|-------------5-5-5----------------||
E|-7-7-7-6-6-6-------6-6-6-7-7-5-55-||
   pm==============================|

|--------------------------------||
|--------------------------------||
|--------------------------------||
|--------------------------------||
|--------------------3-3-3-------||
|-/9-9-9-3-3-3-2-2-2-------2-2-1-||

Guitar 2

(play for the whole duration of the above riff)
e|-15//-||
B|-x//--||
G|-12//-||
D|------||
A|------||
E|------||

_____________________________________________________________________________
2nd POST CHORUS
_____________________________________________________________________________

Guitars 1 & 2
                                       |(1 guitar only)|
e|---------|---|---------|---|---------|---------------|---------||
B|---------|---|---------|---|---------|---------------|---------||
G|-2-2---2-|---|-2-2-0-2-|---|-2-2-0-2-|-4-4-4-4-4-4-4-|-2-2-0-2-||
D|-2-2---2-|---|-2-2-0-2-|---|-2-2-0-2-|-4-4-4-4-4-4-4-|-2-2-0-2-||
A|-0-0-3-0-|---|-0-0-x-0-|---|-0-0-x-0-|---------------|-0-0-x-0-||
E|---------|---|-----3---|---|-----3---|---------------|-----3---||
                                       |staccato-possibly pinched harmonics)
_____________________________________________________________________________
MIDDLE SECTION
_____________________________________________________________________________

Guitar 1 - let open notes ring
                                                                    x2
e|----0-----0----|0-----0-----0--|----0-----0----|0-----0-------------||
B|----0-----0----|0-----0-----0--|----0-----0----|0-----0-------------||
G|6-6-6-6-6-6-6-6|6-6-6-6-6-6-6-6|4-4-4-4-4-4-4-4|4-4-4-4-/14-14-x-13-||
D|x-x-x-x-x-x-x-x|x-x-x-x-x-x-x-x|x-x-x-x-x-x-x-x|x-x-x-x--x--x--x-x--||
A|4-4-4-4-4-4-4-4|4-4-4-4-4-4-4-4|2-2-2-2-2-2-2-2|2-2-2-2-/12-12 x-11-||
E|---------------|---------------|---------------|--------------------||


Guitar 2
                                                           x2
e|-----------------------|-----------------|-----------------||
B|-----------------------|-----------------|-----------------||
G|-----------------------|-8-8-8-8-8-8-8-8-|-8-8-8-8-8-8-8-8-||
D|----2----4----2----4---|-x-x-x-x-x-x-x-x-|-x-x-x-x-x-x-x-x-||
A|-4--4--4-4--4-4--4-4---|-6-6-6-6-6-6-6-6-|-6-6-6-6-6-6-6-6-||
E|-----------------------|-----------------|-----------------||

Guitars 1 & 2

e|-----------------------|
B|-----------------------|
G|-----------------------|
D|----4----2----4----2---|
A|-0--0--0-0--0-0--0-0---|
E|-----------------------|

 ___________________________[1]________________________[2]
|-----------------------------|--------------------------||
|-----------------------------|--------------------------||
|-----------------------------|--------------------------||
|-----4-4-4-2-2-2-1-1-1-------|-----4-4-4-2-2-2-1-1-1----||
|-----------------------------|--------------------------||
|-(2)------------------/5-5-5-|-(2)------------------/5~-||

(Alternative to above riff)
e|----------------------||
B|----------------------||
G|----------------------||
D|----4----2----1-------||
A|----------------------||
E|-2-----2----2----2-5~-||

_____________________________________________________________________________
OUTRO
_____________________________________________________________________________

Guitar 1 - clean

(Palm muting throughout. Ease off slightly on accent *)                x2
e|-----------------------------------------------------------------------||
B|----5------------------------------------------------------------------||
G|----6-------6---------------8---------------3---------------8---------5||
D|6-6-6-------7-666-6-6-------9-666-6-6-------4-666-6-6-------9---------5||
A|4-4-4-777-7-7-777-7-7-999-9-9-777-7-7-444-4-4-777-7-7-999-9-9-9-9-9-9-3||
E|------555-5-5-000-0-0-777-7-7-000-0-0-222-2-2-000-0-0-777-7-7-7-7-7-7--||
      *       *       *       *       *       *       *       *     
_____________________________________________________________________________
Guitar 1

(Crescendo volume and intensity)
                 x4
e|-----------------||
B|-----------------||
G|-----------------||
D|-6-6-6-6-6-6-6-6-||
A|-----------------||
E|-----------------||

Guitar 2

       x2
e|----16-||
B|---17--||
G|--18---||
D|-18----||
A|-------||
E|-------||
(let ring)

Guitar 1 & 2

e|---------------------------------------------------------||
B|---------------------------------------------------------||
G|-6-6-x-2-2--------4-4-4---------------------4-4-4--4-4-5-||
D|-6-6-x-2-2--2-2-x-4-4-4--2-2-x-4-4-4--2-2-x-4-4-4--4-4-5-||
A|-4-4-x-0-0--2-2-x-2-2-2--2-2-x-4-4-4--2-2-x-2-2-2--2-2-3-||
E|------------0-0-x--------0-0-x-2-2-2--0-0-x--------------|| 

(Alternative way beneath. Although, I'm certain on a live version,
maybe even the recording too, that these are separate parts played at
the same time. It's very subtle. Down to your preference.)

e|---------------------------------------------------------||
B|---------------------------------------------------------||
G|-6-6-x(6-6)------(8-8-8)------(3-3-3)------(8-8-8)(8-8)5-||
D|-6-6-x-7-7--6-6-x-9-9-9--6-6-x-4-4-4--6-6-x-9-9-9--9-9-5-||
A|-4-4-x-7-7--7-7-x-9-9-9--7-7-x-4-4-4--7-7-x-9-9-9--9-9-3-||
E|-------5-5--0-0-x-7-7-7--0-0-x-2-2-2--0-0-x-7-7-7--7-7---||

_____________________________________________________________________________

Guitar 1 & 2 - I tabbed the fifth fret as a ghost note cos it sounds
               like only one guitar plays it.

     x8
e|-----||
B|-(5)-||
G|--6--||
D|--x--||
A|--4--||
E|-----||
Suggest correction new What's this?
You can suggest a correction to this tab. Community and Mods will review your correction and vote to approve or reject it.
comments
print report bad tab
guest
You may want to rate the tab now too:
select rating
Please do not post tabs as comments. Select "correction" instead!