Oops, an error
Loading. Please wait.

Five Corporations Tab

version 2
version 2

Whole song

664 views 3 this week
no commentswrite comment
1 2 3 4 5
please rate
add to favorites
launch autoscroll
font size
0
reset
how to read this tab
guitar tuner
Autoscroll
slow
fast
+/-
esc
set tempo
stop
Help us to improve Ultimate-Guitar.com Take our survey!
×
Contributor
Difficulty
intermediate
-----------------------------------------------------------------
Five Corporations - Fugazi
-----------------------------------------------------------------
Tabbed by: Simon
Email: regulartrite@hotmail.com

Tuning: Standard


This looks like a lot, but it isn't. I just put the tabs for each part of the song. 
IT'S EASY TO FOLLOW :D


Starts with a *very slow* upward pick scrape, then blasts in with: 

e|---------------------------------------------------------------|
B|-----------------------------------5p4-------------------------|
G|------chug the guitar----------4h5---------0---0---------------|
D|-2--along with the drums-----------------3---3---3-------------|	Intro!
A|-2----(palm muted)---------------------------------------------|
E|-0-------------------------------------------------------------|


e|---------------------------------------------------------------|
B|---------------------------------------------------------------|
G|-----222222-------------0---0----------------------------------|	Main Riff/Verse  X8
D|-----222222-------0---3---3---3--------------------------------|	
A|-----000000---0h3---0------------------------------------------|
E|---------------------------------------------------------------|

e|---------------------------------------------------------------|
B|---------------------------------------------------------------|
G|--777777-88-5555-----------------------------------------------|	Prechorus(?) X1
D|--777777-66-5555-7777------------------------------------------|
A|--555555-66-3333-7777------------------------------------------|
E|-----------------5555------------------------------------------|

e|---------------------------------------------------------------|
B|---------------------------------------------------------------|
G|-----222222-------------0---0----------------------------------|	Main Riff/Verse   X4
D|-----222222-------0---3---3---3--------------------------------|	
A|-----000000---0h3---0------------------------------------------|
E|---------------------------------------------------------------|

e|---------------------------------------------------------------|
B|---------------------------------------------------------------|
G|--777777-88-5555-----------------------------------------------|	Prechorus X1
D|--777777-66-5555-7777------------------------------------------|
A|--555555-66-3333-7777------------------------------------------|
E|-----------------5555------------------------------------------|


e|---------------------------------------------------------------|
B|(---------------------------)--____---------5p4----------------|
G|(-6-------------------------)-|    |----4h5---------0---0------|	Chorus
D|(-x--strum along until---2--)-| X4 |--------------3---3---3----|
A|(-4----------------------2--)-|____| --------------------------|
E|(------------------------0--)----------------------------------|

e|---------------------------------------------------------------|
B|---------------------------------------------------------------|
G|----------------------------------------------0---0------------|	Main Riff/Verse
D|---BASS BASS BASS BASS-( x4 ) --and then ---3---3---3----------|
A|---------------------------------------------------------------|
E|---------------------------------------------------------------|

e|---------------------------------------------------------------|
B|---------------------------------------------------------------|
G|--777777-88-5555-----------------------------------------------|	Prechorus X1
D|--777777-66-5555-7777------------------------------------------|
A|--555555-66-3333-7777------------------------------------------|
E|-----------------5555------------------------------------------|

e|-----SCRREEEEEEEEEAM!!!-------------------------------------------------------------|
B|(---------------------------)--____---------5p4----5p4-4-4-----5p4----5p4-4-4-------|
G|(-6-------------------------)-|    |----4h5----4h5---------4h5----4h5---------------|
D|(-x--strum along until---2--)-| X6 |------------------------------------------------|
A|(-4----------------------2--)-|____| -----------------------------------------------|
E|(------------------------0--)-------------------------------------------------------|


e|---------------------------------------------------------------|
B|---------------------------------------------------------------|
G|-----222222-------------0---0----------------------------------|
D|-----222222-------0---3---3---3--------------------------------|	Outro X4
A|-----000000---0h3---0------------------------------------------|
E|---------------------------------------------------------------|



| /  slide up
| \  slide down
| h  hammer-on
| p  pull-off
| ~  vibrato
| +  harmonic
| x  Mute note
comments
We did not receive enough feedback on this tab! Please rate:
print report bad tab
1 2 3 4 5
I want to post or [tab]
guest
You may want to rate the tab now too:
select rating
Please do not post tabs as comments. Select "correction" instead!