Oops, an error
Loading. Please wait.

Forensic Scene Bass Tab

1,123 views 3 this week
no commentswrite comment
1 2 3 4 5
please rate
add to favorites
launch autoscroll
font size
0
reset
guitar tuner
Autoscroll
slow
fast
+/-
esc
set tempo
stop
Help us to improve Ultimate-Guitar.com Take our survey!
×
Author
Fugazi
Forensic Scene (bass/guitar 1/guitar 2)
Things might need a bit of fixing up in the buildup.

Intro
Verse with Exit A
Verse
Prechorus
Chorus 1
Break
Verse
Prechorus
Buildup
Chorus 2
Outro

BASS

Intro - play part 1 of verse twice


Verse part 1 (intro)
|------------------|------------------|
|------------------|---------4-4-4-4--|
|-5-5-5-5-4-4-4-4--|-5-5-5-5----------|
|------------------|------------------|

Verse part 2                   ******
|------------------|------------------|
|------------------|------------------|
|-5-5-5-5-4-4-4-4--|-5-5-5-5-5-b5b5b5-|
|------------------|------------------|
progressively bend higher to 6 on last

Verse Exit A
|------------------|
|------------------|
|-0----------------|
|------------------|


Prechorus
|------------------|------------------|
|------------------|------------------|
|-0-----------7777-|-0----------------|
|------------------|------------------|

Chorus
|------------------|------------------|
|------------------|------------------|
|s7---7---3--------|s7---7---3--------|
|-------------3----|-------------3----|

|------------------|------------------|
|------------------|------------------|
|s7---7---3--------|-2-3-3-3-3-3-3-3--|
|-------------3----|------------------|

|------------------|------------------|
|------------------|------------------|
|s7---7---3--------|s7---7---3--------|
|-------------3----|-------------3----|
                    chorus part 2 - outro
|------------------|------------------|
|------------------|------------------|
|s7---7---3--------|-2-3-3-333-2-2-22-|
|-------------3----|------------------|

|------------------|
|------------------|
|-2-1-1-11---------|
|---------2--3-----|


Break

|------------------|------------------|
|------------------|---------4-4---4--|
|-5-5---5-4-4---4--|-5-5---5----------|
|------------------|------------------|
                         *************         
|------------------|------------------|
|------------------|------------------|
|-5-5---5-4-4---4--|-5-5-5b5b5b5b5b5b-|
|------------------|------------------|
progressively bend higher to 6 on last

|------------------|
|------------------|
|-0----------------|
|------------------|

Buildup
|------------------|------------------|
|------------------|------------------|
|------------------|------------------|
|s7--77-8---0--8-7-|s7--77-8---0--8-7-|

|------------------|------------------|
|------------------|------------------|
|------------------|------------------|
|s7--77-8---0--8-7-|s7--77-8----------|

|------------------|------------------|
|------------------|------------------|
|-77777------------|------------------|
|-------8---0--8-7-|s7--77-8---0--8-7-|

                    Only two beats in this bar!
|------------------|------------------|
|------------------|------------------|
|------------------|-77777777---------|
|s7--77-8---0--8-7-|------------------|

|------------------|------------------|
|------------------|------------------|
|-7----------------|------------------|
|------------------|------------------|

|------------------|------------------|
|------------------|------------------|
|-7----------------|------------------|
|------------------|------------------|


Outro - play chorus part 2 4 times, then:
|------------------|
|------------------|
|------------------|
|-0----------------|


GUITAR 1

Intro - wait 8 bars (bass only)


Verse part 1 (bass intro)
|------------------|------------------|
|------------------|------------------|
|------------------|------------------|
|------------------|------------------|
|-5---5---5---5----|-4---4---4---4----|
|------------------|------------------|

|------------------|------------------|
|------------------|------------------|
|------------------|------------------|
|------------------|-4---4---4---4----|
|-5---5---5---5----|------------------|
|------------------|------------------|

Verse part 2 
|------------------|------------------|
|------------------|------------------|
|------------------|------------------|
|------------------|------------------|
|-5---5---5---5----|-4---4---4---4----|
|------------------|------------------|
                        ************
|------------------|------------------|
|------------------|------------------|
|------------------|------------------|
|------------------|------------------|
|-5---5---5---5----|-5---5b--5b--5b---|
|------------------|------------------|
*progressively bend higher to 6 on last

Verse Exit A
|------------------|
|------------------|
|------------------|
|------------------|
|-0----------------|
|------------------|


Prechorus
|------------------|------------------|
|------------------|------------------|
|------------------|------------------|
|------------------|------------------|
|-0-----------7777-|-0----------------|
|------------------|------------------|

Chorus
                 x3
|-0----------------|-0---0------------|
|-0----------------|-0---0------------|
|-0----------------|-0---0------------|
|-9----------------|-9---9------------|
|-7----------------|-7---7------------|
|------------------|------------------|
                 x3 
|-0----------------|-0---0---0---0----|
|-0----------------|-0---0---0---0----|
|-0----------------|-0---0---0---0----|
|-9----------------|-9---9---9---9----|
|-7----------------|-7---7---7---7----|
|------------------|------------------|

|-0---0---0---0----|
|-0---0---0---0----|
|-0---0---0---0----|
|-9---9---9---9----|
|-7---7---7---7----|
|------------------|

Break

|------------------|------------------|
|------------------|------------------|
|------------------|------------------|
|------------------|---------4-4---4--|
|-5-5---5-4-4---4--|-5-5---5----------|
|------------------|------------------|
                         *************         
|------------------|------------------|
|------------------|------------------|
|------------------|------------------|
|------------------|------------------|
|-5-5---5-4-4---4--|-5-5-5b5b5b5b5b5b-|
|------------------|------------------|
progressively bend higher to 6 on last

|------------------|
|------------------|
|------------------|
|------------------|
|-0----------------|
|------------------|

Buildup
|------------------|------------------|
|------------------|------------------|
|------------------|------------------|
|-------7-----7-6--|-------7-----7-6--|
|------------------|------------------|
|s7-77------7------|s7777------7------|

|------------------|------------------|
|------------------|------------------|
|------------------|------------------|
|-------7-----7-6--|-------7----------|
|------------------|------------------|
|s7777------7------|s7777-------------|

|------------------|------------------|
|------------------|------------------|
|------------------|------------------|
|-------7-----7-6--|-------7-----7-6--|
|-77777------------|------------------|
|-----------7------|s7777------7------|

                    Only two beats in this bar!
|------------------|------------------|
|------------------|------------------|
|------------------|------------------|
|-------7-----7-6--|------------------|
|------------------|-77777777---------|
|s7-77------7------|------------------|
                     sharp upstroke
|-0----------------|-0----------------|
|-0----------------|-0----------------|
|-0----------------|-0----------------|
|-9----------------|-9----------------|
|-7----------------|-7----------------|
|------------------|------------------|
                     fret scrape
|-0----------------|------------------|
|-0----------------|------------------|
|-0----------------|------------------|
|-9----------------|-9x---------------|
|-7----------------|-7x---------------|
|------------------|------------------|


Chorus 2 - tremolo picking ~~
|------------------|------------------|
|------------------|------------------|
|------------------|------------------|
|-12~~~~~~~~~11~~~-|-9~~~~~~~~~~~~~~~-|
|------------------|------------------|
|------------------|------------------|

|------------------|------------------|
|------------------|------------------|
|------------------|------------------|
|-12~~~~11~~~~~~~~-|(11)~12~~~~~~~~~~-|
|------------------|------------------|
|------------------|------------------|

|------------------|------------------|
|------------------|------------------|
|------------------|------------------|
|-(12)~~~~~~~~~11~-|-9~~~~~~~~~~~~~~~-|
|------------------|------------------|
|------------------|------------------|

|------------------|
|------------------|
|------------------|
|-12~~~~11~~~~~~~~-|
|------------------|
|------------------|

 Outro 
                                    x4                        
|------------------|------------------|
|------------------|------------------|
|------------------|------------------|
|-11h12-12-12p11-11|-11p10-10---------|
|------------------|------------------|
|------------------|------------------|

|-0----------------|
|-0----------------|
|-0----------------|
|-9----------------|
|-7----------------|
|------------------|



GUITAR 2

Intro - wait 8 bars

Verse
|------------------|------------------|
|------------------|------------------|
|------------------|------------------|
|-10-9-7-7-----7---|-10-9-7-7-----7---|
|----------9-9---9-|----------9-9---9-|
|------------------|------------------|

|------------------|--------------------|
|------------------|--------------------|
|------------------|--------------------|
|-10-9-7-7-----7---|-10-9-7---10-9-7----|
|----------9-9---9-|--------9--------10-|
|------------------|--------------------|

Verse exit A 
|---------------------|
|---------------------|
|---------------------|
|-7----7----7----7----|
|---10---10---10---10-|
|---------------------|

Prechorus - Play Verse Exit A twice

Chorus
                 x3
|------------------|------------------|
|------------------|------------------|
|s9--9-9--9--4-4-4-|-4-5-5-5-5-5-5-5--|
|s9--9-9--9--4-4-4-|-4-5-5-5-5-5-5-5--|
|s7--7-7--7--2-2-2-|-2-3-3-3-3-3-3-3--|
|------------------|------------------|

                 x3
|------------------|
|------------------|
|s9--9-9--9--4-4-4-|
|s9--9-9--9--4-4-4-|
|s7--7-7--7--2-2-2-|
|------------------|

Chorus part 2 (outro)
|------------------|------------------|
|------------------|------------------|
|-4-5-5-555-4-4-44-|-4-3-3-33---------|
|-4-5-5-555-4-4-44-|-4-3-3-33-4--5----|
|-2-3-3-333-2-2-22-|-2-1-1-11-4--5----|
|------------------|----------2--3----|

Break - wait 4 bars, then play Verse Exit A



Buildup
                       x3
|------------------------|------------------------|
|------------------------|------------------------|
|s8-8-8-x-8--xx-8-8-8--8-|s8-8-8-x-8--------------|
|s7-7-7-x-10-xx-101010-7-|s7-7-7-x-10-------------|
|s9-9-9-x-10-xx-101010-9-|s9-9-9-x-10-------------|
|s7-7-7-x-8--xx-8-8-8--7-|s7-7-7-x-8--------------|

|------------------------|------------------------|
|------------------------|------------------------|
|-999999--10-xx-101010-9-|s8-8-8-x-8--xx-8-8-8--8-|
|-999999--10-xx-101010-7-|s7-7-7-x-10-xx-101010-7-|
|-777777--10-xx-101010-9-|s9-9-9-x-10-xx-101010-9-|
|---------8--xx-8-8-8--7-|s7-7-7-x-8--xx-8-8-8--7-|

                           Only two beats in this bar!
|------------------------|------------------------|
|------------------------|------------------------|
|s8-8-8-x-8--xx-8-8-8--8-|-999999-----------------|
|s7-7-7-x-10-xx-101010-7-|-999999-----------------|
|s9-9-9-x-10-xx-101010-9-|-777777-----------------|
|s7-7-7-x-8--xx-8-8-8--7-|------------------------|

         this bar x4
|------------------|
|------------------|
|------------------|
|-9-9-9-99-99-9--9-|
|------------------|
|------------------|

Outro (same as chorus 2 except let top strings ring)
                                     x4
|-0-0-0-000-0-0-00-|-0-0-0-00-0--0----|
|-0-0-0-000-0-0-00-|-0-0-0-00-0--0----|
|-4-5-5-555-4-4-44-|-4-3-3-33-0--0----|
|-4-5-5-555-4-4-44-|-4-3-3-33-4--5----|
|-2-3-3-333-2-2-22-|-2-1-1-11-4--5----|
|------------------|----------2--3----|


|-0----------------|
|-0----------------|
|-0----------------|
|-2----------------|
|-2----------------|
|-0----------------|

LYRICS

In your memory not so gentle
Perversify slash sentimental
Caught between and caught without
I'm a failure not your failure now
In and out just like a knife would tax the flesh and leave a cheap wound
Fucked in fucking love and lay
Congenitally fractured anyway

CHORUS:
Unclipped unclean this forensic scene's all played out
The defense rests and sorry's just a no shit sherlock mouth talk con job

From your memory to this instant worked so hard for working distance
Like a mouth too late to shut
I'm a failure not your failure now

CHORUS
Suggest correction
What's this?
You can suggest a correction to this tab. Community and Mods will review your correction and vote to approve or reject it.
comments
We did not receive enough feedback on this tab! Please rate:
print report bad tab
1 2 3 4 5
guest
You may want to rate the tab now too:
select rating
Please do not post tabs as comments. Select "correction" instead!