Oops, an error
Loading. Please wait.

Full Disclosure Tab

3,312 views 15 this week
no commentswrite comment
1 2 3 4 5
please rate
add to favorites
launch autoscroll
font size
0
reset
how to read this tab
guitar tuner
Autoscroll
slow
fast
+/-
esc
set tempo
stop
Help us to improve Ultimate-Guitar.com Take our survey!
×
-------------------------------------------------------------------------------
                             SONG NAME - Band Name
-------------------------------------------------------------------------------
Tabbed by: William Reynolds
Email:

Tuning: EADGBE
   Ian               continue through intro and verse
e|------------------|
B|------------------|
G|------------------|
D|---222222222222*--|
A|------------------|
E|------------------|
    Guy   Intro
e|-----------------------------------------------------------------------------|
B|-----------------------------------------------------------------------------|
G|-----------------------------------------------------------------------------|
D|-----\888888888----\8888888-------\88888bbb10--------------------------------|
A|-----------------------------------------------------------------------------|
E|-----------------------------------------------------------------------------|
    verses
e|-----------------------------------------------------------------------------|
B|-----------------------------------------------------------------------------|
G|---\4-----\4--------\4---------\4-----------4--------------------------------|
D|-----------------------------------------------------------------------------|
A|-----------------------------------------------------------------------------|
E|-----------------------------------------------------------------------------|

      Chorus
e|----------------------------------------------------------------|
B|----------------------------------------------------------------|
G|----------------------------------------------------------------|
D|-----10-10--10--10--10--10---------10-10-10---10---10-10--5--5--|
A|-----10-10--10--10--10--10---------10-10-10---10---10-10--5--5--|
E|-----8--8----8--8----8---8p-0------8---8--8---8----8--8---3--3--|
     Interlude
e|----------13-----13-----13--------9-9--9--9---9--|
B|--------14-14---14-14---14---------1010-10-10----|
G|-------15--15-15---1515-----------11--11-11-11---|
D|-------------------------------------------------|
A|-------------------------------------------------|
E|-----14-------------14-----------9-------9-------|

| /  slide up
| \  slide down
| h  hammer-on
| p  pull-off
| ~  vibrato
| +  harmonic
| x  Mute note
comments
We did not receive enough feedback on this tab! Please rate:
print report bad tab
1 2 3 4 5
I want to post or [tab]
guest
You may want to rate the tab now too:
select rating
Please do not post tabs as comments. Select "correction" instead!