Oops, an error
Loading. Please wait.

Furniture Tab

version 2
version 2

Whole song

1,638 views 3 this week
no commentswrite comment
1 2 3 4 5
please rate
add to favorites
launch autoscroll
font size
0
reset
how to read this tab
guitar tuner
Autoscroll
slow
fast
+/-
esc
set tempo
stop
Help us to improve Ultimate-Guitar.com Take our survey!
×
Author
Difficulty
intermediate
-------------------------------------------------------------------------------
                             Furniture - Fugazi
-------------------------------------------------------------------------------
Tabbed by: jawbreakerunfun

Tuning: E Standard

Intro/Pre-Verse part

x= palm mute

e|---------------------------------------------------------------------------------|
B|---------------------------------------------------------------------------------|
G|---------------------------------------------------------------------------------|
D|---------------------------------------------------------------------------------|
A|-0-00---8/7-----------3/5--3/5----0-00---8/7-------------------------------------|
E|-----------------0-00----------------------------------0-------------------------|
 x  xx             x xx             x xx                 x

Guitar does not play during Ian's vocals, just Joe's bass.

Then Chorus.

Opens with two chords struck hard

e|-----------------------------------------------------------------------------|
B|-----------------------------------------------------------------------------|
G|-----------------------------------------------------------------------------|
D|---5--7----------------------------------------------------------------------|
A|---3--5----------------------------------------------------------------------|
E|-----------------------------------------------------------------------------|

then

e|-----------------------------------------------------------------------------|
B|-----------------------------------------------------------------------------|
G|-----------------------------------------------------------------------------|
D|----------------------------------------------------5--7---------------------|
A|-0-00---8/7-----------3/5--3/5----0-00---8/7--------3--5---------------------| x1
E|-----------------0-00---------------------------0----------------------------|

e|-----------------------------------------------------------------------------|
B|-----------------------------------------------------------------------------|
G|-----------------------------------------------------------------------------|
D|----------------------------------------------------7------------------------|
A|-0-00---8/7-----------3/5--3/5----0-00---8/7--------5---5--------------------|x1
E|----------------0-00-----------------------------0------3--------------------|

e|--------------------------------------------------------------------------|
B|--------------------------------------------------------------------------|
G|--------------------------------------------------------------------------|
D|--------------------------------------------------------------12---9------|x1
A|-0-00---8/7-----------3/5--3/5----0-00---8/7------------------10---7------|
E|-----------------0-00----------------------------------0------------------|

e|--------------------------------------------------------------------------------|
B|--------------------------------------------------------------------------------|
G|--------------------------------------------------------------------------------|
D|--------------------------------------------------------------------------------|
A|-0-00---8/7-----------3/5--3/5----0-00---8/7-7777-------------------------------|
E|-----------------0-00-----------------------------------------------------------|

then back to pre-verse x4

Verse, no guitar once again.

Chorus is the same, but right after, the drums speed up, and a break occurs

Break

e|------------------------------------------|
B|--00000000--00000000--11111111--33333333--|
G|--22222222--22222222--22222222--22222222--| x3
D|--22222222--22222222--22222222--22222222--|
A|--00000000--------------------------------|
E|------------------------------------------|

e|-----------------------------------------------------------------------------|
B|-----------------------------------------------------------------------------|
G|-14-14-14-14-14--12-12-12-12-12---10-10-10-10-10--77777----------------------|
D|--------------------------------------------------77777----------------------|
A|-12-12-12-12-12--10-10-10-10-10---8--8--8--8--8---55555----------------------|
E|-----------------------------------------------------------------------------|

pre-verse x4

Last verse

Chorus until end.
End on a single hit of the A string.

************************************

| /   slide up
| \   slide down
| h   hammer-on
| p   pull-off
| ~   vibrato
| +   harmonic
| x   Mute note
| b   Bend
| pb  Pre-bend
| br  Bend release
| pbr Pre-bend release
| brb Bend release bend

************************************
Suggest correction new What's this?
You can suggest a correction to this tab. Community and Mods will review your correction and vote to approve or reject it.
comments
We did not receive enough feedback on this tab! Please rate:
print report bad tab
1 2 3 4 5
guest
You may want to rate the tab now too:
select rating
Please do not post tabs as comments. Select "correction" instead!