Oops, an error
Loading. Please wait.

Great Cop Bass Tab

version 1
version 1

Whole song

Interactive

1,612 views 6 this week
1 commentread comment
1 2 3 4 5
please rate
add to favorites
launch autoscroll
font size
0
reset
guitar tuner
Autoscroll
slow
fast
+/-
esc
set tempo
stop
Help us to improve Ultimate-Guitar.com Take our survey!
×
"great cop" by FUGAZI
from the album "In On The Kill Taker"

Warning! -this is probably not 100% correct, but it's close

main part: (a bunch of times) 
G-|----------------------------------
D-|-666-----666------------------
A-|------666-----666-------------
E-|----------------------666-------

Then: "Distrusted!"....  (x2)
G-|------------------------------------------------------------
D-|------------------------------------------------------------
A-|---------66---------66--88888------------66--888888...
E-|-88-----------88-----------------66--88---------------

repeat 

That's basically it, listen to song for rhythm and how to put it all together
q's & c's -bbcgreer@aol.com
Suggest correction
Give kudos to tab author, rate the tab!
1 2 3 4 5
comments
print report bad tab
1 comment total.
0 reply
Rolamoto 20 wrote on May 3 2010, 01:47 pm

The intro is no where near close. Even if the notes were right, it should look more like this


G|--------------------------------------|----------------------------------------------|
D|--------6-6-6--------6-6-6---------|-----6-6-6--------6-6-6--------------------|
A|-6-6-6--------6-6-6----------------|------------6-6-6--------6-6-6-------------|
E|------------------------------6-6-6--|x2-------------------------------6-6-6------| x2

guest
You may want to rate the tab now too:
select rating
Please do not post tabs as comments. Select "correction" instead!