Oops, an error
Loading. Please wait.

Joe No 1 Bass Tab

version 1
version 1

Whole song

613 views 1 this week
1 commentread comment
1 2 3 4 5
worth learning
x 3
add to favorites
launch autoscroll
font size
0
reset
guitar tuner
Autoscroll
slow
fast
+/-
esc
set tempo
stop
Help us to improve Ultimate-Guitar.com Take our survey!
×
Bass tablature of the fugazi song "Joe Number One" from the album Repeater.

This is the main bass line played throughout the song:
G-|----------------------------------------------------------|
D-|------------------------------------------------------3---|
A-|---------------------1--------------------------1---------|
E-|--3-3-5p3-1-3-3--3-1--3-3-5p3-1-3-3--3--------------------|

This is the chorus:
G-|----------------------------------------------------------------|
D-|----------------------------------------------------------------|
A-|--------3h5p3--------------------3h5p3--------------------------|
E-|--0-0----------5-5-3h5p3-0-0------------------------------------|

This is my first tab, and I've only been playing bass
for 6 months, so this tab might not be 100% correct.

Listen to the cd for rythm, etc.
Buy "Repeater" if you don't already own it!

Send questions or comments to: dboonlives@hotmail.com
THANKS
Suggest correction
Give kudos to tab author, rate the tab!
1 2 3 4 5
comments
print report bad tab
1 comment total.
0 reply
CoKane311 173 wrote on January 11 2007, 11:14 pm

the only accurate part of the tab is the chorus.
the verse goes:

G|----------------------|-----------------------
D|----------------------|--------------------3-3
A|-----1h3--------1-1---|------1h3-------1-1----
E|-3-3-----1-3-3-----1--|--3-3-----1-3-3--------

guest
You may want to rate the tab now too:
select rating
Please do not post tabs as comments. Select "correction" instead!