Oops, an error
Loading. Please wait.

Kyeo tab

version 1
version 1

Whole song

by Fugazi
220 views 1 this week
no commentswrite comment
1 2 3 4 5
2 more votes to show rating
add to favorites
×
Save as Personal and add changes to this tab that will be seen only by you. Learn more ›
×
You can save this tab as Personal to edit and correct it or add notes. All changes will be seen only by you. Learn more »
launch autoscroll
font size
0
reset
how to read this tab
guitar tuner
edit
Autoscroll
slow
fast
+/-
esc
set tempo
stop
Author
-------------------------------------------------------------------------------
                                KYEO - FUGAZI
-------------------------------------------------------------------------------
Tabbed by:Cowpatable


Tuning:standard

************************************

| /   slide up
| \   slide down
| h   hammer-on
| ~   vibrato
| x   Mute note
| ()  Ghost note

************************************
_______________________________________________________________________________
                                   INTRO
_______________________________________________________________________________

Guitar one
                            x11
e|----------------------------||--------------------||
B|----12----------------------||----12--------------||
G|-------12-------------------||-------12-----------||
D|-14-------14--12h14-14--1414||-14-------14--12h14-||
A|----------------------------||--------------------||
E|----------------------------||--------------------||

Guitar two
                1,2,3,5,6,7                        4                8
e|-------------------------||-----------------------||---------------||
B|-------------------------||-----------------------||---------------||
G|-------------------------||-----------------------||---------------||
D|-------5-----------------||--------5---x\------7~-||-------5---x\--||
A|-0----x---------------5~-||-0----x-----x\--0h5----||-0----x----x\--||
E|-----x---0-00-0-0-5-7----||-----x----0-x\---------||-----x---0-x\--||
             pm=======|
_______________________________________________________________________________
Guitar one and two

               x2
e|-(0)-----5-(0)-||
B|-(0)-(x)-5-(0)-||
G|-6---(x)-6--12-||
D|-5---(x)-7--11-||
A|-0-------0--0--||
E|---------------||
_______________________________________________________________________________
Guitar one
                   x2
e|-------------------||----------||
B|---7---------------||----------||
G|-----7-------------||-555555-7-||
D|-9-----9--7h9--9-99||-xxxxxx-x-||
A|-------------------||-333333-5-||
E|-------------------||----------||

Guitar two
           x2
e|-----------||-----------||
B|-----------||-----------||
G|-----------||-5555555-7-||
D|-6---6---6-||-xxxxxxx-x-||
A|-7---7---7-||-3333333-5-||
E|-0---0---0-||-----------||

_______________________________________________________________________________
                                     VERSE
_______________________________________________________________________________

Guitar one and two

e|---||
B|---||
G|---||
D|---||
A|-0-||
E|---||
 (let ring)
_______________________________________________________________________________
Guitar one - x2 
                               
               x2                   x2 
e|-(0)-----5-(0)-||-------------------||
B|-(0)-(x)-5-(0)-||---7---------------||
G|-6---(x)-6--12-||-----7-------------||
D|-5---(x)-7--11-||-9-----9--7h9--9-99||
A|-0-------0--0--||-------------------||
E|---------------||-------------------||

Guitar two x2

               x2           x2
e|-(0)-----5-(0)-||-----------||
B|-(0)-(x)-5-(0)-||-----------||
G|-6---(x)-6--12-||-----------||
D|-5---(x)-7--11-||-6---6---6-||
A|-0-------0--0--||-7---7---7-||
E|---------------||-0---0---0-||
_______________________________________________________________________________

Guitar one and two

e||-----------||
B||-----------||
G||-5555555-7-||
D||-xxxxxxx-x-||
A||-3333333-5-||
E||-----------||
            (let D octave ring into verse)
_______________________________________________________________________________
                                   VERSE
_______________________________________________________________________________


Guitar one and two

                x4
e|---||-----------||
B|---||-----------||
G|---||-5555555-7-||
D|---||-xxxxxxx-x-||
A|---||-3333333-5-||
E|-0-||-----------||
 (let ring)
_______________________________________________________________________________
Guitar one
                   x4                            x4
e|-------------------||----------------------------||-----------||
B|---7---------------||----12----------------------||-----------||
G|-----7-------------||-------12-------------------||-5555555-7-||
D|-9-----9--7h9--9-99||-14-------14--12h14-14--1414||-xxxxxxx-x-||
A|-------------------||----------------------------||-3333333-5-||
E|-------------------||----------------------------||-----------||

Guitar two
           x4                                       x2
e|-----------||---------------------------------------||-------------------||
B|-----------||---------------------------------------||-------------------||
G|-----------||---------------------------------------||-------------------||
D|-6---6---6-||-101010-101010-101010-101010-555-7-----||-10101010101010-12-||
A|-7---7---7-||-x-x-x--x-x-x--x-x-x--x-x-x--xxx-x-----||-x-x-x-x-x-x-x--x--||
E|-0---0---0-||-8-8-8--8-8-8--8-8-8--8-8-8--333-5-----||-8-8-8-8-8-8-8--10-||

_______________________________________________________________________________
                                    BREAK
_______________________________________________________________________________

Guitar one - Gradually ease off palm muting

e|----------------------------------------------||
B|----------------------------------------------||
G|-12-12-12-11-11-11-11----------12-x-12-x-12-x-||
D|----------------------10-10-10----------------||
A|----------------------------------------------||
E|----------------------------------------------||
   pm==========================================| 

Guitar two

e|------------------------------------------|
B|------------------------------------------|
G|------------------------12----12----12----|
D|-------0-0-0-0-10-10-10-10-10-10-10-10-10-|
A|-0-0-0------------------------------------|
E|------------------------------------------|
   pm===================|    pm    pm    pm
 |-------------------------------------------|
 |-------------------------------------------|
 |-------------------------12----12----12----|
 |-0-0-0-0-0-0-0-10-101010-10-10-10-10-10-10-|
 |-------------------------------------------|
 |-------------------------------------------|
   pm====================|    pm    pm    pm
 |------------------------------------|
 |------------------------------------|
 |------------------------------------|
 |------------------------------------|
 |-10-10-10-9-9-9-9-------10--10--10--|
 |------------------8-8-8-8-8-8-8-8-8-|
   pm===================|   pm  pm  pm
 |-------------------------------------||
 |-------------------------------------||
 |-12-12-12-11111111-------------------||
 |-x--x--x--x-x-x-x-101010101010101010-||
 |-10-10-10-9-9-9-9-x-x-x-x-x-x-x-x-x--||
 |------------------8-8-8-8-8-8-8-8-8--||

_______________________________________________________________________________
                                    OUTRO
_______________________________________________________________________________

Guitar one and two - Throw in a pick scrape if ya like. Think Ian does it.

                       x8
e|-----------------------||---||
B|-----------------------||---||
G|-2-000-------------5-7-||---||
D|-2-000-2--22-2-2-2-5-7-||-2-||
A|-0-xxx-2--22-2-2-2-3-5-||-2-||
E|---333-0--00-0-0-0-----||-0-||

            
            
Suggest correction
Creating personal tab
Creating personal tab
You can edit any tab online and save it as your Personal.

You can edit, replace or remove any tab part or add personal notes – all changes will be seen only by you.

Personal tabs can be accessed anytime from any device, even offline.
Learn more »
Give kudos to tab author, rate the tab!
1 2 3 4 5
comments
print report bad tab
guest
You may want to rate the tab now too:
select rating
Wanna post a correction for this tab? Suggest correction