Oops, an error
Loading. Please wait.

Last Chance For A Slow Dance Tab

version 2
version 2

Whole song

Interactive

by Fugazi
1,416 views 3 this week
2 commentsread comments
1 2 3 4 5
x 4
add to favorites
×
Save as Personal and add changes to this tab that will be seen only by you. Learn more ›
×
You can save this tab as Personal to edit and correct it or add notes. All changes will be seen only by you. Learn more »
save as personal
new!
launch autoscroll
font size
0
reset
how to read this tab
guitar tuner
Autoscroll
slow
fast
+/-
esc
set tempo
stop
Author
Difficulty
intermediate
Artist: Fugazi
Song: "Last Chance for a Slow Dance"
Album: In on the Kill Taker (1993)



Standard Tuning



INTRO:
Guitar R (Guy Picciotto)
e|------------------------------------------------------------------------------------------------||
B|-------------3-----------------------------------------------3----------------------------------||
G|-2----h3-----------3-----------------------------2----h3-----------3--3-------------------------|| x 4
D|-------------------------2b---r0-----------------------------------------2-----2-----2br0--0--0-||
A|-------------------------------------0-----x----------------------------------------------------||
E|------------------------------------------------------------------------------------------------||
|                                                                                                 |
|                                                                                                 |
|                                                                                                 |
INTRO:                                                                                            |
Guitar L (Ian MacKaye)                                                                            |
e|------------------------------------------------------------------------------------------------||
B|------------------------------------------------------------------------------------------------||
G|------------------------------------------------------------------------------------------------|| x 4
D|------------------------------------------------------------------------------------------------||
A|------------------------------------------------------------------------------------------------||
E|------------------------------------------------------------------------------------------------||



VERSE:
Guitar R
e|------------------------------------------------------------------------------------------------||
B|-------------3-----------------------------------------------3----------------------------------||
G|-2----h3-----------3-----------------------------2----h3-----------3--3-------------------------|| x 7
D|-------------------------2b---r0-----------------------------------------2-----2-----2br0--0--0-||
A|-------------------------------------0-----x----------------------------------------------------||
E|------------------------------------------------------------------------------------------------||
+
   Gm6                      play dissonant harmonics, behind the bridge strums, pick slides into CHORUS
e|-0-----------------------------------------------0-----------------x-----------------x----------|
B|-3-----------------------------------------------3-----------------x-----------------x----------|
G|-3----------------------------------------------(3)----------------x-----------------x----------|
D|-0----------------------------------------------------------------------------------------------|
A|-x----------------------------------------------------------------------------------------------|
E|-3----------------------------------------------------------------------------------------------|
|                                                                                                 |
|                                                                                                 |
|                                                                                                 |
VERSE:                                                                                            |
Guitar L                                                                                          |
e|------------------------------------------------------------------------------------------------|
B|------------------------------------------------------------------------------------------------|
G|------------------------------------------------------------------------------------------------|
D|------------------------------------------------------------------------------------------------|
A|------------------------------------------------------------------------------------------------|
E|-1-----------------------------------------------------------------------------------8----------|
+
e|------------------------------------------------------------------------------------------------|
B|------------------------------------------------------------------------------------------------|
G|------------------------------------------------------------------------------------------------|
D|------------------------------------------------------------------------------------------------|
A|-10---------------------------------------------------------------------------------------------|
E|-------------------------------------------------------------------------------------3----------|
+
e|------------------------------------------------------------------------------------------------|
B|------------------------------------------------------------------------------------------------|
G|------------------------------------------------------------------------------------------------|
D|------------------------------------------------------------------------------------------------|
A|-------------------------------------------------------------------------------------10---------|
E|\1----------------------------------------------------------------------------------------------|
+
e|------------------------------------------------------------------------------------------------|
B|------------------------------------------------------------------------------------------------|
G|------------------------------------------------------------------------------------------------|
D|------------------------------------------------------------------------------------------------|
A|------------------------------------------------------------------------------------------------|
E|-10----------------------------------------------------------------------------------3----------|
+
e|------------------------------------------------------------------------------------------------|
B|------------------------------------------------------------------------------------------------|
G|------------------------------------------------------------------------------------------------|
D|------------------------------------------------------------------------------------------------|
A|------------------------------------------------------------------------------------------------|
E|\1-----------------------------------------------------------------------------------10---------|
+
e|------------------------------------------------------------------------------------------------|
B|------------------------------------------------------------------------------------------------|
G|------------------------------------------------------------------------------------------------|
D|------------------------------------------------------------------------------------------------|
A|------------------------------------------------------------------------------------------------|
E|\8-----------------------------------------------------------------------------------3----------|
+
e|------------------------------------------------------------------------------------------------|
B|------------------------------------------------------------------------------------------------|
G|------------------------------------------------------------------------------------------------|
D|------------------------------------------------------------------------------------------------|
A|------------------------------------------------------------------------------------------------|
E|\1-----------------------------------------------------------------------------------1----------|
+
e|------------------------------------------------------------------------------------------------|
B|------------------------------------------------------------------------------------------------|
G|------------------------------------------------------------------------------------------------|
D|------------------------------------------------------------------------------------------------|
A|------------------------------------------------------------------------------------------------|
E|\3----------------------------------------------------------------------------------------------|



CHORUS:
Guitar R
   D                                               G#6sus4b5/D
e|-2-----------------------------------------------1----------------------------------------------|
B|-3-----------------------------------------------2----------------------------------------------|
G|-2-----------------------------------------------1----------------------------------------------|
D|-0-----------------------------------------------0----------------------------------------------|
A|-------------------------------------------------------------------------------------3-----2----|
E|------------------------------------------------------------------------------------------------|
+
   G                                               G                 G                 G
e|-3-----------------------------------------------3-----------------3-----------------3----------|
B|-0-----------------------------------------------0-----------------0-----------------0----------|
G|-0-----------------------------------------------0-----------------0-----------------0----------|
D|-0-----------------------------------------------0-----------------0-----------------0----------|
A|-x-----------------------------------------------x-----------------x-----------------x----------|
E|-3-----------------------------------------------3-----------------3-----------------3----------|
+
   D                                               G#6sus4b5/D
e|-2-----------------------------------------------1----------------------------------------------|
B|-3-----------------------------------------------2----------------------------------------------|
G|-2-----------------------------------------------1----------------------------------------------|
D|-0-----------------------------------------------0----------------------------------------------|
A|-------------------------------------------------------------------------------------3-----2----|
E|------------------------------------------------------------------------------------------------|
+
   G                                               F6sus2
e|-3----------------------------------------------------------------------------------------------|
B|-0----------------------------------------------------------------------------------------------|
G|-0-----------------------------------------------0----------------------------------------------|
D|-0-----------------------------------------------0----------------------------------------------|
A|-x-----------------------------------------------x----------------------------(x\)--------------|
E|-3-----------------------------------------------1----------------------------------------------|
|                                                                                                 |
|                                                                                                 |
|                                                                                                 |
CHORUS:                                                                                           |
Guitar L                                                                                          |
   D/A                                             n/a
e|------------------------------------------------------------------------------------------------|
B|------------------------------------------------------------------------------------------------|
G|------------------------------------------------------------------------------------------------|
D|-7-----------------------------------------------6----------------------------------------------|
A|-5-----------------------------------------------5-----------------------------------3-----2----|
E|-5-----------------------------------------------4----------------------------------------------|
+
   G                                               G                 G                 G
e|------------------------------------------------------------------------------------------------|
B|------------------------------------------------------------------------------------------------|
G|-0-----------------------------------------------0-----------------0-----------------0----------|
D|-0-----------------------------------------------0-----------------0-----------------0----------|
A|-x-----------------------------------------------x-----------------x-----------------x----------|
E|-3-----------------------------------------------3-----------------3-----------------3----------|
+
   D/A                                             n/a
e|------------------------------------------------------------------------------------------------|
B|------------------------------------------------------------------------------------------------|
G|------------------------------------------------------------------------------------------------|
D|-7-----------------------------------------------6----------------------------------------------|
A|-5-----------------------------------------------5-----------------------------------3-----2----|
E|-5-----------------------------------------------4----------------------------------------------|
+
   G                                               F6sus2
e|------------------------------------------------------------------------------------------------|
B|------------------------------------------------------------------------------------------------|
G|-0-----------------------------------------------0----------------------------------------------|
D|-0-----------------------------------------------0----------------------------------------------|
A|-x-----------------------------------------------x----------------------(x\)--------------------|
E|-3-----------------------------------------------1----------------------------------------(3)---|



OUTRO:
Guitar R
  *feedback*
e|------------------------------------------------------------------------------------------------|
B|------------------------------------------------------------------------------------------------|
G|------------------------------------------------------------------------------------------------|
D|------------------------------------------------------------------------------------------------|
A|------------------------------------------------------------------------------------------------|
E|-------------------------------------------------------------------------------------8----------|
+
e|------------------------------------------------------------------------------------------------|
B|------------------------------------------------------------------------------------------------|
G|------------------------------------------------------------------------------------------------|
D|------------------------------------------------------------------------------------------------|
A|-10---------------------------------------------------------------------------------------------|
E|-------------------------------------------------------------------------------------3----------|
+
e|------------------------------------------------------------------------------------------------|
B|------------------------------------------------------------------------------------------------|
G|------------------------------------------------------------------------------------------------|
D|------------------------------------------------------------------------------------------------|
A|-------------------------------------------------------------------------------------10---------|
E|\1----------------------------------------------------------------------------------------------|
+
e|------------------------------------------------------------------------------------------------|
B|------------------------------------------------------------------------------------------------|
G|------------------------------------------------------------------------------------------------|
D|------------------------------------------------------------------------------------------------|
A|------------------------------------------------------------------------------------------------|
E|-10----------------------------------------------------------------------------------3----------|
+
e|------------------------------------------------------------------------------------------------|
B|------------------------------------------------------------------------------------------------|
G|------------------------------------------------------------------------------------------------|
D|------------------------------------------------------------------------------------------------|
A|------------------------------------------------------------------------------------------------|
E|\1-----------------------------------------------------------------------------------10---------|
+
e|------------------------------------------------------------------------------------------------|
B|------------------------------------------------------------------------------------------------|
G|------------------------------------------------------------------------------------------------|
D|------------------------------------------------------------------------------------------------|
A|------------------------------------------------------------------------------------------------|
E|\8-----------------------------------------------------------------------------------3----------|
+
e|------------------------------------------------------------------------------------------------|
B|------------------------------------------------------------------------------------------------|
G|------------------------------------------------------------------------------------------------|
D|------------------------------------------------------------------------------------------------|
A|------------------------------------------------------------------------------------------------|
E|\1-----------------------------------------------------------------------------------1----------|
+
e|------------------------------------------------------------------------------------------------|
B|------------------------------------------------------------------------------------------------|
G|------------------------------------------------------------------------------------------------|
D|------------------------------------------------------------------------------------------------|
A|------------------------------------------------------------------------------------------------|
E|\3----------------------------------------------------------------------------------------------|
|                                                                                                 |
|                                                                                                 |
|                                                                                                 |
OUTRO:                                                                                            |
Guitar L                                                                                          |
e|------------------------------------------------------------------------------------------------|
B|------------------------------------------------------------------------------------------------|
G|------------------------------------------------------------------------------------------------|
D|------------------------------------------------------------------------------------------------|
A|------------------------------------------------------------------------------------------------|
E|-1-----------------------------------------------------------------------------------8----------|
+
e|------------------------------------------------------------------------------------------------|
B|------------------------------------------------------------------------------------------------|
G|------------------------------------------------------------------------------------------------|
D|------------------------------------------------------------------------------------------------|
A|-10---------------------------------------------------------------------------------------------|
E|-------------------------------------------------------------------------------------3----------|
+
e|------------------------------------------------------------------------------------------------|
B|------------------------------------------------------------------------------------------------|
G|------------------------------------------------------------------------------------------------|
D|------------------------------------------------------------------------------------------------|
A|-------------------------------------------------------------------------------------10---------|
E|\1----------------------------------------------------------------------------------------------|
+
e|------------------------------------------------------------------------------------------------|
B|------------------------------------------------------------------------------------------------|
G|------------------------------------------------------------------------------------------------|
D|------------------------------------------------------------------------------------------------|
A|------------------------------------------------------------------------------------------------|
E|-10----------------------------------------------------------------------------------3----------|
+
e|------------------------------------------------------------------------------------------------|
B|------------------------------------------------------------------------------------------------|
G|------------------------------------------------------------------------------------------------|
D|------------------------------------------------------------------------------------------------|
A|------------------------------------------------------------------------------------------------|
E|\1-----------------------------------------------------------------------------------10---------|
+
e|------------------------------------------------------------------------------------------------|
B|------------------------------------------------------------------------------------------------|
G|------------------------------------------------------------------------------------------------|
D|------------------------------------------------------------------------------------------------|
A|------------------------------------------------------------------------------------------------|
E|\8-----------------------------------------------------------------------------------3----------|
+
e|------------------------------------------------------------------------------------------------|
B|------------------------------------------------------------------------------------------------|
G|------------------------------------------------------------------------------------------------|
D|------------------------------------------------------------------------------------------------|
A|------------------------------------------------------------------------------------------------|
E|\1-----------------------------------------------------------------------------------1----------|
+
e|------------------------------------------------------------------------------------------------|
B|------------------------------------------------------------------------------------------------|
G|------------------------------------------------------------------------------------------------|
D|------------------------------------------------------------------------------------------------|
A|------------------------------------------------------------------------------------------------|
E|\3----------------------------------------------------------------------------------------------|



SONG STRUCTURE:

Guitar R
INTRO
VERSE x 2
CHORUS x 2
VERSE x 2
CHORUS x 2
OUTRO

Guitar L
INTRO
VERSE x 2
CHORUS x 2
VERSE x 2
CHORUS x 2
OUTRO

That's it.
Please feel free to leave comments, corrections, and suggestions.
Cheers!
-Bennyshambles78-
Suggest correction
comments
print report bad tab
2 comments total.
0 reply
iommi600 4,801 Mar 14, 2014 08:30 PM

My favorite. Thank you for this.

0 reply
borgnepute 10 Apr 17, 2015 09:19 AM

Thanks. Love this song

guest
You may want to rate the tab now too:
select rating
Wanna post a correction for this tab? Suggest correction