Oops, an error
Loading. Please wait.

Life And Limb Tab

version 2
version 2

Whole song

Interactive

4,659 views 9 this week
1 commentread comment
1 2 3 4 5
excellent!
x 4
add to favorites
launch autoscroll
font size
0
reset
how to read this tab
guitar tuner
Autoscroll
slow
fast
+/-
esc
set tempo
stop
Help us to improve Ultimate-Guitar.com Take our survey!
×
Fugazi - Life and Limb
Album - The Argument (2001)
Date - Thursday, July 14th, 2005

Standard Tuning (E A D G B E)

Key:
~  = Let the note ring out
\  = Slide Down
/  = Slide Up
X  = Don't play this string
Guitar 1

Intro: (0:00 - 0:02)

E|---------0~----------------------------------------------|
B|---------0~----------------------------------------------|
G|---------1~----------------------------------------------|
D|---------2~----------------------------------------------|
A|---------2~----------------------------------------------|
E|--\0--0--------------------------------------------------|


Verse: (0:09 - 0:46)		                       (x11)
E|---------------------------------------------------------|
B|------------8-7-6-----------8---8------------------------|
G|------------------9-----------0--------------------------| 
D|--6-6-8-6-5---------6-8-6-5------------------------------|
A|---------------------------------------------------------|
E|---------------------------------------------------------|


	 (0:47 - 0:50)		                        
E|---------------------------------------------------------|
B|------------8-7-6-----------8-7--------------------------|
G|------------------9-------------9------------------------| 
D|--6-6-8-6-5---------6-8-6-5------------------------------|
A|---------------------------------------------------------|
E|---------------------------------------------------------|


Chorus: (0:51 - 1:03)				        (x4)
E|---------------------------------------------------------|
B|----9------8------9---9---8------------------------------|
G|--6---9--6---9--6---6---6---9--6--9----------------------|
D|---------------------------------------------------------|
A|---------------------------------------------------------|
E|---------------------------------------------------------|


Verse: (1:04 - 1:17)		                        (x4)
E|---------------------------------------------------------|
B|------------8-7-6-----------8---8------------------------|
G|------------------9-----------0--------------------------|
D|--6-6-8-6-5---------6-8-6-5------------------------------|
A|---------------------------------------------------------|
E|---------------------------------------------------------|


Break: (1:18 - 1:30)
E|---------------------------------------------------------|
B|---------------------------------------------------------|
G|---------------------------------------------------------|       
D|---------------------------------------------------------|
A|---------------------------------------------------------|
E|---------------------------------------------------------|


Verse: (1:31 - 1:44)                                    (x4)
E|---------------------------------------------------------|
B|------------8-7-6-----------8---8------------------------|
G|------------------9-----------0--------------------------| 
D|--6-6-8-6-5---------6-8-6-5------------------------------|
A|---------------------------------------------------------|
E|---------------------------------------------------------|


Pre-solo: (1:45 - 1:50)
E|---------------------------------------------------------|
B|----------------------------------------9------8---------|
G|--6--8~-8--6--8~-8--6--8~-8--6--8~-8--6---9--6---9--6-6--|
D|----------------------------------------------------6-6--|
A|----------------------------------------------------4-4--|
E|---------------------------------------------------------|


Solo: (1:52 - 2:17)
E|-----------7~------------------5~------------------------|
B|-----6-7-8----8-7-6--------------------------------------|
G|--6~-------------------------6---------------------------|
D|--------------------7~-7--7~-----------------------------|
A|---------------------------------------------------------|
E|---------------------------------------------------------|


E|-----------7~---7-8-8/9~-12--9~-12~----------------------|
B|-----6-7-8----8------------------------------------------|
G|--6~-----------------------------------------------------|
D|---------------------------------------------------------|
A|---------------------------------------------------------|
E|---------------------------------------------------------|


E|-----------7~------------------5~------------------------|
B|-----6-7-8----8-7-6--------------------------------------|
G|--6~-------------------------6---------------------------|
D|--------------------7~-7--7~-----------------------------|
A|---------------------------------------------------------|
E|---------------------------------------------------------|


E|--X---X---X----------------------------------------------|
B|--9~--10--9----------------------------------------------|
G|--8~--9---8---9~-----------------------------------------|
D|--6~--7---6---9~-----------------------------------------|
A|--X---X---X---7~-----------------------------------------|
E|--X---X---X----------------------------------------------|


Break: (2:18 - 2:24)
E|---------------------------------------------------------|
B|---------------------------------------------------------|
G|---------------------------------------------------------|       
D|---------------------------------------------------------|
A|---------------------------------------------------------|
E|---------------------------------------------------------|


Verse: (2:25 - 2:51)                                    (x8)
E|---------------------------------------------------------|
B|------------8-7-6-----------8---8------------------------|
G|------------------9-----------0--------------------------| 
D|--6-6-8-6-5---------6-8-6-5------------------------------|
A|---------------------------------------------------------|
E|---------------------------------------------------------|


Outro: (2:52 - 3:02)					(x3)
E|---------------------------------------------------------|
B|----9------8---------9---9---8---------------------------|
G|--6---9--6---9--6-6----6---6---6--9--6—-9----------------|
D|----------------6-6--------------------------------------|
A|----------------4-4--------------------------------------|
E|---------------------------------------------------------|


	 (3:03 - 3:04)      End (3:11)
E|-----------------------------------|
B|----9------8-----------------------|
G|--6---9--6---9--6-6~---------------|
D|----------------6-6~---------------|
A|----------------4-4~---------------|
E|-----------------------------------|
Suggest correction
comments
print report bad tab
1 comment total.
0 reply
mulletboy14 20 wrote on March 26 2008, 08:15 pm

Very nice tab. 100%

guest
You may want to rate the tab now too:
select rating
Please do not post tabs as comments. Select "correction" instead!