Oops, an error
Loading. Please wait.

Merchandise Bass Tab

version 1
version 1

Whole song

Interactive

3,459 views 3 this week
3 commentsread comments
1 2 3 4 5
please rate
add to favorites
launch autoscroll
font size
0
reset
guitar tuner
Autoscroll
slow
fast
+/-
esc
set tempo
stop
Help us to improve Ultimate-Guitar.com Take our survey!
×
---------------------------------------------------------------------------
			     Merchandise- Fugazi                           
----------------------------------------------------------------------------

By: Captain Insano
Tuning: Standard

My favorite Fugazi song. I think it's sounds spot on. 


Intro
G|----------------------------|
D|----------------------------|
A|----------------------------|
E|-----333--------------------| x 4 

Verse
G|--------------------------------------------------|
D|--------------------------------------------------|
A|--------------------------------------------------|
E|----333-444-555555-000000-888888------------------| x6

Chorus
G|--------------------------------------------------|
D|--------------------------------------------------|
A|-------------222----------------------------------|
E|----22222222-----222222-555555--------------------| x2 

Bridge-Bass Solo Part 
G|-----------------------------------|
D|-----------------------------------|
A|-----------------------------------|
E|----33--55-000-88------------------| x4

Bridge- The other Part 
G|--------------------------------------------|
D|--------------------------------------------|
A|--------------------------------------------|
E|----3-4-5(Let Ring)-0(Let Ring)-8(Let Ring)-| x4

Outro is the Verse PLayed over and over. 

Suggest correction
Give kudos to tab author, rate the tab!
1 2 3 4 5
comments
print report bad tab
3 comments total.
+1 reply
therobnagy 10 wrote on November 17 2014, 03:01 pm

You were missing the best part!

Bass Solo:

G|-------------------0-5-0--------------------|
D|----55---5-----5-0--------------------------|
A|-------7---7-5------------------------------|
E|--------------------------------------------|

0 reply
therobnagy 10 wrote on November 17 2014, 03:02 pm

You were missing the best part!

Bass Solo:

G|-------------------0-5-0--------------------|
D|----55---5-----5-0--------------------------|
A|-------7---7-5------------------------------|
E|--------------------------------------------|

0 reply
therobnagy 10 wrote on November 17 2014, 03:02 pm

You were missing the best part!

Bass Solo:

G|-------------------0-5-0--------------------|
D|----55---5-----5-0--------------------------|
A|-------7---7-5------------------------------|
E|--------------------------------------------|

guest
You may want to rate the tab now too:
select rating
Please do not post tabs as comments. Select "correction" instead!