Oops, an error
Loading. Please wait.

Number 5 Tab

1,097 views 1 this week
no commentswrite comment
1 2 3 4 5
please rate
add to favorites
launch autoscroll
font size
0
reset
how to read this tab
guitar tuner
Tab Pro tools
  • play this tab
  • loop segment
  • change instrument
  • show fretboard
  • metronome
×
Best way to learn
"Number 5"
Autoscroll
slow
fast
+/-
esc
set tempo
stop
Contributor
INTRO 2x
e|---------------------------------------------------------------------------|
B|---------------------------------------------------------------------------|
G|----3-----3-----3----------------------------------------------------------|
D|----3-----3-----3-------3>--hold--and--------------------------------------|
A|----1-----1-----1-------3>-----bend----------------------------------------|
E|------------------------1--------------------------------------------------|

VERSE 1 12X
e|---------------------------------------------------------------------------|
B|---------------------------------------------------------------------------|
G|---------------------------------------------------------------------------|
D|-------------------5---3---------------------------------------------------|
A|--3---6----3---3------------6---3---3---6---3---3---6---3--3---6-----------|
E|---------------------------------------------------------------------------|

VERSE 2 2X
e|---------------------------------------------------------------------------|
B|---------------------------------------------------------------------------|
G|---------------------------------------------------5----5----5\------------|
D|-------------------7-----7-----7-------------------------------------------|
A|------------------------------------5----5----5----------------------------|
E|----5----5----5------------------------------------------------------------|

e|---------------------------------------------------------------------------|
B|---------------------------------------------------------------------------|
G|------------------2/------------9-------9------9---------------------------|
D|--------------------------------X-------X------X---------------------------|
A|--------------------------------7-------7------7---------------------------|
E|---------1---1/------------------------------------------------------------|

VERSE 1 10X

VERSE 2 2X

VERSE 3 2X
e|---------------------------------------------------------------------------|
B|---------------------------------------------------------------------------|
G|--------8-----------------8------------------------------------------------|
D|--------8--------7--------8-------7-------------9--------7--------9--------|
A|--------6--------7--------6-------7-------------9--------7--------9--------|
E|-----------------5----------------5-------------7--------5--------7--------|

VERSE 4 4x
e|---------------------------------------------------X-----X-----X-----X-----|
B|---------------------------------------------------X-----X-----X-----X-----|
G|--------------4--------------------4---------------X-----X-----X-----X-----|
D|---------------------------------------------------X-----X-----X-----X-----|
A|----3----3---------3----3----3-----------3---------X-----X-----X-----X-----|
E|---------------------------------------------------X-----X-----X-----X-----|

VERSE 5 4X
e|---------------------------------------------------------------------------|
B|---------------------------------------------------------------------------|
G|---------------------12---10-----------------------------------------------|
D|--10---13---10---10-----------13---10---10---13---10---10---13--10--10--13-|
A|---------------------------------------------------------------------------|
E|---------------------------------------------------------------------------|

VERSE 6 4X (PICK FAST)
e|---------------------------------------------------------------------------|
B|---------------------------------------------------------------------------|
G|-----------------------------------------------------------------12--10----|
D|-13--10--10--10--13--10--10--10--13--10--10--10--13--10--10--10---------13-|
A|---------------------------------------------------------------------------|
E|---------------------------------------------------------------------------|

VERSE 7 4X
e|---------------------------------------------------------------------------|
B|---------------------------------------------------------------------------|
G|------------------------------------------------5---5---5\--------------2/-|
D|------------------7----7----7----------------------------------------------|
A|----------------------------------5---5---5--------------------------------|
E|----5---5---5--------------------------------------------------1---1/------|

VERSE 8
e|---------------------------------------------------------------------------|
B|---------------------------------------------------------------------------|
G|--------9----9----9-----9----9----9-----9----9----9-----9----9----9--------|
D|--------X----X----X-----X----X----X-----X----X----X-----X----X----X--------|
A|--------7----7----7-----7----7----7-----7----7----7-----7----7----7--------|
E|---------------------------------------------------------------------------|

OUTRO
e|---------------------------------------------------------------------------|
B|---------------------------------------------------------------------------|
G|----3-----3-----3----------------------------------------------------------|
D|----3-----3-----3-------3>--hold--and--------------------------------------|
A|----1-----1-----1-------3>-----bend----------------------------------------|
E|------------------------1--------------------------------------------------|

OVERVIEW:

I. INTRO 2x
II. VERSE 1 12X
III. VERSE 2 2X
IV. VERSE 1 10X
V. VERSE 2 2X
VI. VERSE 3 2X
VII. VERSE 4 4x
VIII. VERSE 5 4X
IX. VERSE 6 4X
X VERSE 7 4X
XI. VERSE 8
XII. OUTRO
comments
We did not receive enough feedback on this tab! Please rate:
print report bad tab
1 2 3 4 5
I want to post or [tab]
guest
You may want to rate the tab now too:
select rating
Please do not post tabs as comments. Select "correction" instead!