Oops, an error
Loading. Please wait.

Shut The Door bass

version 2
version 2

Whole song

  • The complete song, with timing added.
by Fugazi
34 views 3 this week
no commentswrite comment
1 2 3 4 5
3 more votes to show rating
add to favorites
×
Save as Personal and add changes to this tab that will be seen only by you. Learn more ›
×
You can save this tab as Personal to edit and correct it or add notes. All changes will be seen only by you. Learn more »
launch autoscroll
font size
0
reset
guitar tuner
edit
Autoscroll
slow
fast
+/-
esc
set tempo
stop
About this tab version
The complete song, with timing added. Was this info helpful? Yes No
[Pre-verse]
G|------------------------------------------------|
D|---5--------------------------------5-----5--7--|
A|------5--0-----5-----5--7--------7-----7--------|
E|------------------------------------------------|
  1  *  *  *  2  *  *  *  3  *  *  *  4  *  *  *  
                                             
G|------------------------------------------------| 
D|---5--------------------------5/7---5-----------| 
A|------5--0-----5-----5--7-----------------7-----| 
E|------------------------------------------------| 
  1  *  *  *  2  *  *  *  3  *  *  *  4  *  *  *  

G|------------------------------------------------|
D|---5--------------------------------5-----5--7--|
A|------5--0-----5-----5--7--------7-----7--------|
E|------------------------------------------------|
  1  *  *  *  2  *  *  *  3  *  *  *  4  *  *  *  
                                                    \
G|------------------------------------------------| |
D|---5--------------------------------5-----------| |(x2)
A|------5--0-----5-----5--7--------7-----7--------| |
E|------------------------------------------------| |
  1  *  *  *  2  *  *  *  3  *  *  *  4  *  *  *    /

[Verse 1]
G|------------------------------------------------|
D|---5--------------------------------5-----5--7--|
A|------5--0-----5-----5--7--------7-----7--------|
E|------------------------------------------------|
  1  *  *  *  2  *  *  *  3  *  *  *  4  *  *  *  

G|------------------------------------------------|
D|---5--------------------------------------------|
A|------5--0-----5-----5--7-----------------------|
E|------------------------------------------------|
  1  *  *  *  2  *  *  *  3  *  *  *  4  *  *  *  

G|------------------------------------------------|
D|---5--------------------------------5-----5--7--|
A|------5--0-----5-----5--7--------7-----7--------|
E|------------------------------------------------|
  1  *  *  *  2  *  *  *  3  *  *  *  4  *  *  *  

G|------------------------------------------------|
D|---5--------------------------------5-----------|
A|------5--0-----5-----5--7--------7-----7--------|
E|------------------------------------------------|
  1  *  *  *  2  *  *  *  3  *  *  *  4  *  *  *  

G|------------------------------------------------|
D|---5--------------------------------5-----5--7--|
A|------5--0-----5-----5--7--------7-----7--------|
E|------------------------------------------------|
  1  *  *  *  2  *  *  *  3  *  *  *  4  *  *  *  

G|------------------------------------------------| 
D|---5--------------------------5/7---5-----------| 
A|------5--0-----5-----5--7-----------------7-----| 
E|------------------------------------------------| 
  1  *  *  *  2  *  *  *  3  *  *  *  4  *  *  *  

G|------------------------------------------------|
D|---5--------------------------------5-----5--7--|
A|------5--0-----5-----5--7--------7-----7--------|
E|------------------------------------------------|
  1  *  *  *  2  *  *  *  3  *  *  *  4  *  *  *  

G|------------------------------------------------|
D|---5--------------------------------5-----------|
A|------5--0-----5-----5--7--------7-----7--------|
E|------------------------------------------------|
  1  *  *  *  2  *  *  *  3  *  *  *  4  *  *  *  

[Chorus]
G|------------------------------------------------|
D|------4--2--------------------------------6-----|(x7)
A|---------------6--4-----------7--4--7--4--------|
E|------------------------------------------------|
  1  *  *  *  2  *  *  *  3  *  *  *  4  *  *  *  

G|------------------------------------------------|
D|------4--2--------------------------------------|
A|---------------6--4-----------------------------|
E|------------------------------------------------|
  1  *  *  *  2  *  *  *  3  *  *  *  4  *  *  *  

[Verse 2]
G|------------------------------------------------|
D|---5--------------------------------5-----5--7--|
A|------5--0-----5-----5--7--------7-----7--------|
E|------------------------------------------------|
  1  *  *  *  2  *  *  *  3  *  *  *  4  *  *  *  

G|------------------------------------------------|
D|---5--------------------------------------------|
A|------5--0-----5-----5--7-----------------------|
E|------------------------------------------------|
  1  *  *  *  2  *  *  *  3  *  *  *  4  *  *  *  

G|------------------------------------------------|
D|---5--------------------------------5-----5--7--|
A|------5--0-----5-----5--7--------7-----7--------|
E|------------------------------------------------|
  1  *  *  *  2  *  *  *  3  *  *  *  4  *  *  *  

G|------------------------------------------------| 
D|---5--------------------------5/7---5-----------| 
A|------5--0-----5-----5--7-----------------7-----| 
E|------------------------------------------------| 
  1  *  *  *  2  *  *  *  3  *  *  *  4  *  *  *  

G|------------------------------------------------|
D|---5--------------------------------5-----5--7--|
A|------5--0-----5-----5--7--------7-----7--------|
E|------------------------------------------------|
  1  *  *  *  2  *  *  *  3  *  *  *  4  *  *  *  

G|------------------------------------------------| 
D|---5--------------------------5/7---5-----------| 
A|------5--0-----5-----5--7-----------------7-----| 
E|------------------------------------------------| 
  1  *  *  *  2  *  *  *  3  *  *  *  4  *  *  *  

G|------------------------------------------------|
D|---5--------------------------------5-----5--7--|
A|------5--0-----5-----5--7--------7-----7--------|
E|------------------------------------------------|
  1  *  *  *  2  *  *  *  3  *  *  *  4  *  *  *  

G|------------------------------------------------|
D|---5--------------------------------5-----------|
A|------5--0-----5-----5--7--------7-----7--------|
E|------------------------------------------------|
  1  *  *  *  2  *  *  *  3  *  *  *  4  *  *  *  

G|------------------------------------------------|
D|---5--------------------------------5-----5--7--|
A|------5--0-----5-----5--7--------7-----7--------|
E|------------------------------------------------|
  1  *  *  *  2  *  *  *  3  *  *  *  4  *  *  *  

G|------------------------------------------------| 
D|---5--------------------------5/7---5-----------| 
A|------5--0-----5-----5--7-----------------7-----| 
E|------------------------------------------------| 
  1  *  *  *  2  *  *  *  3  *  *  *  4  *  *  *  

G|------------------------------------------------|
D|---5--------------------------------5-----5--7--|
A|------5--0-----5-----5--7--------7-----7--------|
E|------------------------------------------------|
  1  *  *  *  2  *  *  *  3  *  *  *  4  *  *  *  

G|------------------------------------------------|
D|---5--------------------------------5-----------|
A|------5--0-----5-----5--7--------7-----7--------|
E|------------------------------------------------|
  1  *  *  *  2  *  *  *  3  *  *  *  4  *  *  *  

[Chorus again]
G|------------------------------------------------|
D|------4--2--------------------------------6-----|(x7)
A|---------------6--4-----------7--4--7--4--------|
E|------------------------------------------------|
  1  *  *  *  2  *  *  *  3  *  *  *  4  *  *  *  

G|------------------------------------------------|
D|------4--2--------------------------------------|
A|---------------6--4-----------------------------|
E|------------------------------------------------|
  1  *  *  *  2  *  *  *  3  *  *  *  4  *  *  *  

[Bridge]
G|------------------------------------------------|
D|------------------------------------5--7--------|(x4)
A|------7--5-----0--0--5--7--------7--------------|
E|5--7--------------------------------------------|
  1  *  *  *  2  *  *  *  3  *  *  *  4  *  *  *  

G|------------------------------------------------|
D|------------------------------------------------|
A|7\----------------------------------------------|
E|------------------------------------------------|
  1  *  *  *  2  *  *  *  3  *  *  *  4  *  *  *  

[Instrumental]
G|------------------------------------------------|
D|---5--------------------------------5-----5--7--|
A|------5--0-----5-----5--7--------7-----7--------|
E|------------------------------------------------|
  1  *  *  *  2  *  *  *  3  *  *  *  4  *  *  *  

G|------------------------------------------------| 
D|---5--------------------------5/7---5-----------| 
A|------5--0-----5-----5--7-----------------7-----| 
E|------------------------------------------------| 
  1  *  *  *  2  *  *  *  3  *  *  *  4  *  *  *  

G|------------------------------------------------|
D|---5--------------------------------5-----5--7--|
A|------5--0-----5-----5--7--------7-----7--------|
E|------------------------------------------------|
  1  *  *  *  2  *  *  *  3  *  *  *  4  *  *  *  

G|------------------------------------------------|
D|---5--------------------------------5-----------|
A|------5--0-----5-----5--7--------7-----7--------|
E|------------------------------------------------|
  1  *  *  *  2  *  *  *  3  *  *  *  4  *  *  *  

G|------------------------------------------------|
D|---5--------------------------------5-----5--7--|
A|------5--0-----5-----5--7--------7-----7--------|
E|------------------------------------------------|
  1  *  *  *  2  *  *  *  3  *  *  *  4  *  *  *  

G|------------------------------------------------| 
D|---5--------------------------5/7---5-----------| 
A|------5--0-----5-----5--7-----------------7-----| 
E|------------------------------------------------| 
  1  *  *  *  2  *  *  *  3  *  *  *  4  *  *  *  
/
| G|------------------------------------------------|
| D|---5--------------------------------5-----5--7--|
| A|------5--0-----5-----5--7--------7-----7--------|
| E|------------------------------------------------|
\   1  *  *  *  2  *  *  *  3  *  *  *  4  *  *  *  
                                                    \
G|------------------------------------------------| |
D|---5--------------------------------------------| |(x3)
A|------5--0-----5-----5--7-----------------------| |
E|------------------------------------------------| |
  1  *  *  *  2  *  *  *  3  *  *  *  4  *  *  *    /

G|------------------------------------------------|
D|---5--------------------------------------------|(x4)
A|------5--0-----5-----5--7-----------------------|
E|------------------------------------------------|
  1  *  *  *  2  *  *  *  3  *  *  *  4  *  *  *  

[Verse 3]
G|------------------------------------------------|
D|---5--------------------------------5-----5--7--|
A|------5--0-----5-----5--7--------7-----7--------|
E|------------------------------------------------|
  1  *  *  *  2  *  *  *  3  *  *  *  4  *  *  *  

G|------------------------------------------------|
D|---5--------------------------------------------|
A|------5--0-----5-----5--7-----------------------|
E|------------------------------------------------|
  1  *  *  *  2  *  *  *  3  *  *  *  4  *  *  *  

[Outro]
G|------------------------------------------------|
D|------------------------------------------------|
A|------7--5-----0--0--5--7--------7--------------|
E|5--7--------------------------------------------|
  1  *  *  *  2  *  *  *  3  *  *  *  4  *  *  *  

G|------------------------------------------------|
D|------------------------------------5--7--------|
A|------7--5-----0--0--5--7--------7--------------|
E|5--7--------------------------------------------|
  1  *  *  *  2  *  *  *  3  *  *  *  4  *  *  *  

G|------------------------------------------------|
D|------------------------------------------------|
A|------7--5-----0--0--5--7--------7--------------|
E|5--7--------------------------------------------|
  1  *  *  *  2  *  *  *  3  *  *  *  4  *  *  *  

G|------------------------------------------------|
D|------------------------------------------------|
A|------7--5-----0--0--5--7-----------------------|
E|5--7--------------------------------------------|
  1  *  *  *  2  *  *  *  3  *  *  *  4  *  *  *


************************************

| /  Slide up
| \  Slide down

************************************
Suggest correction
Creating personal tab
Creating personal tab
You can edit any tab online and save it as your Personal.

You can edit, replace or remove any tab part or add personal notes – all changes will be seen only by you.

Personal tabs can be accessed anytime from any device, even offline.
Learn more »
Give kudos to tab author, rate the tab!
1 2 3 4 5
comments
print report bad tab
guest
You may want to rate the tab now too:
select rating
Wanna post a correction for this tab? Suggest correction