Oops, an error
Loading. Please wait.

Suggestion tab

version 1
version 1

Whole song

by Fugazi
8,769 views 12 this week
5 commentsread comments
1 2 3 4 5
x 6
add to favorites
×
Save as Personal and add changes to this tab that will be seen only by you. Learn more ›
×
You can save this tab as Personal to edit and correct it or add notes. All changes will be seen only by you. Learn more »
launch autoscroll
font size
0
reset
how to read this tab
guitar tuner
edit
Autoscroll
slow
fast
+/-
esc
set tempo
stop
#----------------------------------PLEASE NOTE---------------------------------#
#This file is the author's own work and represents their interpretation of the #
#song. You may only use this file for private study, scholarship, or research. #
#------------------------------------------------------------------------------##
From: cborst@cs.tamu.edu (Christoph W Borst)
Date: 24 May 1995 07:52:06 GMT

Fugazi tab for "Suggestion"

Transcribed by Christoph Borst (mohawk@tamu.edu) sometime in 1994
                               http://tam2000.tamu.edu/~cwb2900/
               Please send me comments, corrections, etc.

README: Over the past couple years I have seen several ASCII tabs for
        Fugazi songs.  Not until recently did I actually dig out the old
        record and realize how far off most were.  So, I played along
        with the songs a couple times to find something that sounds better:
        Think of this as an improvement to the already available tab.

        I don't claim that it's perfect -- I am not a big Fugazi fan and
        this is typed from memory.


Fugazi - Suggestion

Most of the song is based on the following pattern.
  It is sometimes played on the D and G strings (e.g. at first),
  and sometimes on the A and D strings.

beat: 1       &       2       &       3       &       4       &
                      .       .
     -----------------7-------5-------7\------------------------------|
     -0---0-0-0---0-----------------------------------3---3---5---5---|
     pm............                                   pm...........


Example of a variation, played on A and D strings:

     -----------------7-----------7-----------7---7---5---6---7-------|
     -0---0-0-0---0-------0---0-------0---0-----------------------0---|


You will find this sort of thing happening from time to time:

     ---------------------------|
     ---------------------------|      .
     -7---------------7-------5-|      7
     -7---------------7-------5-|      7 (or whammy bar or sliding stuff,
     -5---------------5-------3-|      5  what happens here varies)
     ---------------------------|

And the more aggressive part is:
(ASCII space taken per beat is now half of previous)

     -----------------------------------------------------------------|
     -------------------------------------.---.-----------------------|
     -7---7-7-7---------------------------9---8---7-------------------|
     -7---7-7-7---7-------7---7---7-----------------------------------|
     -5---5-5-5---7-------7---7---7-----------------------------------|
     -------------5-------5---5---5\--0-------------------------------|

have a nice day -:)

            
            
Suggest correction
Creating personal tab
Creating personal tab
You can edit any tab online and save it as your Personal.

You can edit, replace or remove any tab part or add personal notes – all changes will be seen only by you.

Personal tabs can be accessed anytime from any device, even offline.
Learn more »
comments
print report bad tab
5 comments total. Showing first comments.
0 reply
outoftouch 10 May 08, 2007 12:53 PM

E|-2------------------------
B|-3--------------------------
G|-2-------------------------
D|-------7-----9---8---7-----
A|-------7-----7---6---5-----
E|-------5------------------- i think thats how he plays the chorus give me feed back at outoftouch354@aim.com

+1 reply
outoftouch 10 May 08, 2007 05:27 PM

E|--2-2-----------------------------------------
B|--3-3-----------------------------------------
G|--2-2---------------------------------------
D|------------7-----7-7-7------------9---8---7--
A|------------7-----7-7-7------------7---6---5--
E|------------5-----5-5-5------0---------------- this is it in more detail

0 reply
YourLastAffront 102 Dec 21, 2007 12:34 PM

E|--------------------------------------------
B|--------------------------------------------
G|--7-7-----------------
-------------9-9/8/7--
D|--7-7-------7-----7-7-7------------x-x/x/x--
A|--5-5-------7-----7-7-7------------7-7/6/5--

E|------------5-----5-5-5------0--------------

That's more like it.

guest
Wanna post a correction for this tab? Suggest correction