Oops, an error
Loading. Please wait.

No Woman No Cry tab

version 3
version 3

Whole song

Interactive

by Fugees
16,156 views 9 this week
2 commentsread comments
1 2 3 4 5
1 last vote to show rating
add to favorites
×
Save as Personal and add changes to this tab that will be seen only by you. Learn more ›
×
You can save this tab as Personal to edit and correct it or add notes. All changes will be seen only by you. Learn more »
launch autoscroll
font size
0
reset
how to read this tab
guitar tuner
edit
Autoscroll
slow
fast
+/-
esc
set tempo
stop
Author
Difficulty
-------------------------------------------------------------------------------
     SONG NAME - Band Name
-------------------------------------------------------------------------------
Tabbed by: chillern
Email: andreas_01_@hotmail.com

First tab, be gentle :P
This theme repeats throughout the song:

Tuning: EADGBe

e|---0--------1----------0-------------------|
B|---1--------0----------1-------------------|
G|---0--------0----------2-------------------|
D|---------------------------0-2-3-3-2-2-----|
A|-3--------------2-3-0----------------------|
E|-----0-1-3---------------------------------|

I play this during the chorus, I know it's not actually played in the song, but
it sounds kinda neat if you play it correctly with the right timing, and it's in
the right key and all :P

e|----0-------0---------0-------1--------0--------1---------------------|
B|----1-------1---------1-------1--------1--------0---------------------|
G|----0-------0---------0-------2--------0--------0---------------------|
D|----------------------------------------------------------------------|
A|-3-----3-2-----2----0----0----------3-----3p2-------------------------|
E|---------------------------1-----0-----------0-----3------------------|


| /  slide up
| \  slide down
| h  hammer-on
| p  pull-off
| ~  vibrato
| +  harmonic
| x  Mute note
===============================================================================

            
            
Suggest correction
Creating personal tab
Creating personal tab
You can edit any tab online and save it as your Personal.

You can edit, replace or remove any tab part or add personal notes – all changes will be seen only by you.

Personal tabs can be accessed anytime from any device, even offline.
Learn more »
Give kudos to tab author, rate the tab!
1 2 3 4 5
comments
print report bad tab
2 comments total.
0 reply
chillern 41 Oct 13, 2005 11:58 AM

Goddamn, made a mistake, it's supposed to be
|
|
V
e|---0--------3----------0-------------------|
B|---1--------0----------1-------------------|
G|---0--------0----------2-------------------|
D|---------------------------0-2-3-3-2-2-----|
A|-3--------------2-3-0----------------------|
E|-----0-1-3---------------------------------|

crap

0 reply
Grapewon 63 Nov 09, 2007 02:54 PM

It sounds really good. For the chorus though, it'd be nice to have some chord names (or more importantly how you are
fingering them), but only because I'm lazy.

Thanks for the tab.

guest
You may want to rate the tab now too:
select rating
Wanna post a correction for this tab? Suggest correction