Oops, an error
Loading. Please wait.

The Gambler Tab

version 1
version 1

Intro

Whole song

by Fun
9,686 views 9 this week
1 commentread comment
1 2 3 4 5
please rate
add to favorites
launch autoscroll
font size
0
reset
how to read this tab
guitar tuner
Tab Pro tools
  • play this tab
  • loop segment
  • change instrument
  • show fretboard
  • metronome
×
Best way to learn
"The Gambler"
Autoscroll
slow
fast
+/-
esc
set tempo
stop
Difficulty
intermediate
-------------------------------------------------------------------------------
                             The Gambler - fun.
-------------------------------------------------------------------------------
Tabbed by:  Nathan Cornell
One of my favorite songs this is for the piano part in the intro that is
played a few times throughout the song enjoy

Tuning: Standard

e|-----13------13------10-----8-------6------8-------------------------------|
B|---15------13------11----10-------8------10-----15-------15----------------|
G|-15------14-----12-----10-------8-----10------15----14---15----------------|
D|---------------------------------------------------------------------------|
A|---------------------------------------------------------------------------|
E|---------------------------------------------------------------------------|

Hopefully everyone likes it! There is a great tab of the chords so check it out and buy 
and Ignite!


************************************

| /   slide up
| \   slide down
| h   hammer-on
| p   pull-off
| ~   vibrato
| +   harmonic
| x   Mute note
| b   Bend
| pb  Pre-bend
| br  Bend release
| pbr Pre-bend release
| brb Bend release bend

************************************
comments
We did not receive enough feedback on this tab! Please rate:
print report bad tab
1 2 3 4 5
1 comment total.
0 reply
Sief9 wrote on August 27 2011, 04:14 am

I think the second chord is this:

e|-------13----
B|-----15------
G|---14--------
D|-------------
A|-------------
E|-------------

Other than that, pretty spot on. Good work.

I want to post or [tab]
guest
You may want to rate the tab now too:
select rating
Please do not post tabs as comments. Select "correction" instead!