Oops, an error
Loading. Please wait.

Walking The Dog bass

by Fun
1,958 views 1 this week
2 commentsread comments
1 2 3 4 5
1 last vote to show rating
add to favorites
×
Save as Personal and add changes to this tab that will be seen only by you. Learn more ›
×
You can save this tab as Personal to edit and correct it or add notes. All changes will be seen only by you. Learn more »
launch autoscroll
font size
0
reset
guitar tuner
edit
Autoscroll
slow
fast
+/-
esc
set tempo
stop
Author
Difficulty
fun. - Walking the Dog


     W                   W                   E  E  H.            
G||-------------------|-------------------|---------------------|
D||-------------------|-------------------|---------------------|
A||-------------------|-------------------|--5------------------|
E||-------------------|-------------------|---------------------|


  E  E  H.              E  E  H.              H.            Q      
G|---------------------|---------------------|----------------------|
D|---------------------|---------------------|----------------------|
A|--5------------------|--5------------------|---------------17s----|
E|---------------------|---------------------|----------------------|

  E  E  E  E  E  E  E   E     E  E  E  E  E  E  E  E   
G|---------------------------|--------------------------|
D|--------------5-----5s--7--|--------------------------|
A|--5--------5---------------|--------------4-----7-----|
E|---------------------------|--5--------5--------------|


  E  E  E  E  E  E  E   E     E  E  E  E  E  E  S E.   
G|---------------------------|--------------------------|
D|--------------5-----5s--7--|--------------------------|
A|--5--------5---------------|--------------4-----5-7---|
E|---------------------------|--5--------5--------------|

  S S S S E  E  S S S S E  E     S S S S E  E  S S S S E  E   
G|------------------------------|------------------------------|
D|----------2-------------4-----|----------5-------------7-----|
A|--------2-------------4-------|--------5-------------7-------|
E|--0-2-3---------2-4-5---------|--3-5-7---------5-7-9---------|


  S S S S E  E  S S S S E  E     E  E  E  E  E  E  E  E   
G|------------------------------|--------------------------|
D|----------2-------------4-----|--------------------------|
A|--------2-------------4-------|--------------------4-----|
E|--0-2-3---------2-4-5---------|--3-----3-----5-----------|


  E  E  E  E  E  E  E   E     E.  S E  E  E  E  E  E   
G|---------------------------|--------------------------|
D|--------------5-----5s--7--|--7---7-------------------|
A|--5--------5---------------|-----------0--4-----7-----|
E|---------------------------|--------------------------|


  E  E  E  E  E  E  E  E     E.  E.  S S E  E  Q     
G|--------------------------|------6---9---------9----|
D|--------------5-----5-----|--7-----------7----------|
E|--5--------5--------------|-------------------------|
A|--------------------------|-------------------------|



  E  E  E  E  E  E  E   E     E.  S E  E  E  E  E  E   
G|---------------------------|--------------------------|
D|--------------5-----5s--7--|--7---7-------------------|
A|--5--------5---------------|-----------0--4-----7-----|
E|---------------------------|--------------------------|



  E  E  E  E  E  E  Q        E  E  E  E  H           E  E  H.            
G|--------------------------|-----------------------|---------------------|
D|--------4--4--5--5--7\----|--7--------------------|---------------------|
A|--5--5--------------------|--------0--------------|--5------------------|
E|--------------------------|-----------------------|---------------------|



  E  E  H.              E  E  H.              H.            Q      
G|---------------------|---------------------|----------------------|
D|---------------------|---------------------|----------------------|
A|--5------------------|--5------------------|---------------17s----|
E|---------------------|---------------------|----------------------|


  E   E  H.              E   E  Q    E.  E.  E     E  Q.     E.  E.  E   
G|----------------------|------------------6---9--|------------7---11--14-|
D|----------------------|--------------7----------|-----------------------|
A|--5\------------------|-------------------------|--5--------------------|
E|----------------------|--5\---------------------|-----------------------|


  E  Q.     S S S S S E.     E.  E.  E  E.  E.  E     E.  E.  E  E.  E.  E   
G|--------------------------|------------------------|------------------------|
D|--------------------------|------4---7------4---7--|------------------------|
A|--------------------------|--5----------5----------|------4---7------4---7--|
E|--5---------5---5---5-5---|------------------------|--5----------5----------|


  E.  E.  E  E.  E.  E     E.  E.  E  E  E  E  E   
G|------------------------|-------------------------|
D|------4---7------4---7--|-------------------------|
A|--5----------5----------|------4---7-----4--7--0--|
E|------------------------|--5----------5-----------|


  S S S S E  E  S S S S E  E     S S S S E  E  S S S S E  E   
G|------------------------------|------------------------------|
D|----------2-------------4-----|----------5-------------7-----|
A|--------2-------------4-------|--------5-------------7-------|
E|--0-2-3---------2-4-5---------|--3-5-7---------5-7-9---------|


  S S S S E  E  S S S S E  E     Q    H         Q     
G|------------------------------|----------------------|
D|----------2-------------4-----|----------------/7----|
A|--------2-------------4-------|----------------------|
E|--0-2-3---------2-4-5---------|--3-------------------|



  E  E  E  E  E  E  E   E     E.  S E  E  E  E  E  E   
G|---------------------------|--------------------------|
D|--------------5-----5s--7--|--7---7-------------------|
A|--5--------5---------------|-----------0--4-----7-----|
E|---------------------------|--------------------------|


  E  E  E  E  E  E  E  E     E.  E.  S S E  E  S S E   
G|--------------------------|------6---9---------9------|
D|--------------5-----5-----|--7-----------7-------7----|
A|--5--------5--------------|------------------------7--|
E|--------------------------|---------------------------|


  E  E  E  E  E  E  E   E     E.  S E  E  E  E  E  E   
G|---------------------------|--------------------------|
D|--------------5-----5s--7--|--7---7-------------------|
A|--5--------5---------------|-----------0--4-----7-----|
E|---------------------------|--------------------------|



  E  E  E  E  E  E  E  E     E  E  E  E  E  E  E  E   
G|--------------------------|--------------------------|
D|--------4--4--5--5--6--6--|--7--7-----7--------------|
A|--5--5--------------------|--------0-----------4--4--|
E|--------------------------|--------------5--5--------|


  E  E  E  E  E  E  E  E     E  E  H.              H        S E  S S S E   
G|--------------------------|---------------------|-----------7-9--7--------|
D|--------4--4--5--5--6--6--|--7------------------|--------------------9-7--|
A|--5--5--------------------|---------------------|--5----------------------|
E|--------------------------|---------------------|-------------------------|


  H        S E  S S S E     H        S E  S S S E     Q    Q    Q    Q     
G|-----------7-9--7--------|-----------7-9--7--------|----------------------|
D|--------------------9-7--|--------------------9-7--|--5----4----2----0----|
A|--4----------------------|--3----------------------|----------------------|
E|-------------------------|-------------------------|----------------------|


  Q    Q    E.  S E  E     Q    E  E  Q    Q       Q    Q    Q    Q     
G|------------------------|----------7--4---------|----------------------|
D|-5----4----2---0-------|-------7----------4----|--6---------6---------|
A|------------------2--4--|--5--------------------|-------5---------5----|
E|------------------------|-----------------------|----------------------|



  Q    Q    Q    E  E     H        S E  S S S E     H        S E  S S S E   
G|-----------------------|-----------7-9--7--------|-----------7-9--7--------|
D|--5---------9----7-----|--------------------9-7--|--------------------9-7--|
A|-------5------------0--|--5----------------------|--4----------------------|
E|-----------------------|-------------------------|-------------------------|



  E  E   E  Q    E  S S E     Q    Q    Q    Q       Q    Q    S S E  E  E   

G|--------/9--7----7--7------|----------------------|-------------------------|
D|----------------------9-7--|--5----4----2----4----|--5---------5------------|
A|--3------------------------|----------------------|-------5--------2--2--4--|
E|---------------------------|----------------------|-------------------------|


  Q    E  E  Q    Q       Q    Q    E  E  E  E     H        H         
G|----------7--4---------|---------------7--6--4--|--4--------2--------|
D|-------7----------4----|--6---------6-----------|--------------------|
A|--5--------------------|-------5----------------|--------------------|
E|-----------------------|------------------------|--------------------|



  W                   S S S S E  E  S S S S E  E   
G|--3----------------|------------------------------|
D|-------------------|----------2-------------4-----|
A|-------------------|--------2-------------4-------|
E|-------------------|----2-3-----------4-5---------|



  S S S S E  E  S S S S E  E     S S S S E  E  S S S S E  E   
G------------------------------|------------------------------|
D----------5-------------7-----|----------2-------------4-----|
A--------5-------------7-------|--------2-------------4-------|
E----5-7-----------7-9---------|--0-2-3------0--2-4-5------2--|


  E  E  E  E  E  E  S E.      W                   W                 
G|---------------------------|-------------------|-------------------|
D|--------------------7-7\---|-------------------|-------------------|
A|---------------------------|-------------------|-------------------|
E|-3-----3-----5------------|-------------------|-------------------|



  W                   W                   E  E  H.            
G|-------------------|-------------------|---------------------|
D|-------------------|-------------------|---------------------|
A|-------------------|-------------------|--5------------------|
E|-------------------|-------------------|---------------------|


  E  E  H.              E  E  E  E  E  E  E  E   
G|---------------------|--------------------------|
D|---------------------|--------------------------|
A|--5------------------|--5--5--5--5--5--5--5--5--|
E|---------------------|--------------------------|


              |--3--|  |--3--|                               
  E  E  E  E  E  E  E  E  E  E     E  E  E  E  E  E  E   E   
G|--------------------------------|---------------------------|
D|--------------7--7--7--7--7--7--|--------------5-----5s--7--|
A|--5-----------------------------|--5--------5---------------|
E|-----5--5--5--------------------|---------------------------|


  E.  S E  E  E  E  E  E     E  E  E  E  E  E  E  E     E.  E.  S S E  E  Q     
G|--------------------------|--------------------------|------6---9--------------|
D|--7---7-------------------|--------------5-----5-----|--7-----------7----------|
A|-----------0--4-----7-----|--5--------5--------------|--------------------7----|
E|--------------------------|--------------------------|-------------------------|


  E  E  E  E  E  E  E   E     E.  S E  E  E  E  E  E   
G|---------------------------|--------------------------|
D|--------------5-----5s--7--|--7---7-------------------|
A|--5--------5---------------|-----------0--4-----7-----|
E|---------------------------|--------------------------|



  E  E  E  E  E  E  E  E     E  E  E  E  E  E  E  E   
G|--------------------------|--------------------------|
D|--------4--4--5--5--6--6--|--------------------------|
A|--5--5--------------------|--0--0--2--2--3--3--5--7--|
E|--------------------------|--------------------------|



  E  E  E  E  E  E  E  E     E  E  E  E  E  E  E  E          
G|--------------------------|--------3--3--4--4--5-----|-----||
D|--------4--4--5--5--6--6--|--7--7-----------------7--|-----||
A|--5--5--------------------|--------------------------|-----||
E|--------------------------|--------------------------|-----||




Duration Legend
---------------
W - whole
H - half
Q - quarter
E - 8th
S - 16th
. - note dotted
|-n-|  - n-tuplets


Tablature Legend
----------------
L - tied note
x - dead note
g - grace note

            
            
Suggest correction
Creating personal tab
Creating personal tab
You can edit any tab online and save it as your Personal.

You can edit, replace or remove any tab part or add personal notes – all changes will be seen only by you.

Personal tabs can be accessed anytime from any device, even offline.
Learn more »
Give kudos to tab author, rate the tab!
1 2 3 4 5
comments
print report bad tab
2 comments total.
0 reply
Modnarandom 278 Sep 23, 2015 04:16 PM

Nice! Just needs the tapping muted bit after the first verse

0 reply
Schwenke 1,576 Sep 24, 2015 07:08 PM, edited on October 5 2015, 05:15 am

.

guest
You may want to rate the tab now too:
select rating
Wanna post a correction for this tab? Suggest correction