Oops, an error
Loading. Please wait.

We Are Young Bass Tab

version 1
version 1

Whole song

Interactive

by Fun
10,441 views 24 this week
no commentswrite comment
1 2 3 4 5
please rate
add to favorites
launch autoscroll
font size
0
reset
guitar tuner
Autoscroll
slow
fast
+/-
esc
set tempo
stop
Help us to improve Ultimate-Guitar.com Take our survey!
×
Author
Difficulty
intermediate
Fun, We Are Young

This accompanies my guitar tab

Intro

------------------------|
------------------------|
--8----5----10----5--7--| x2
------------------------|

Pre Chorus

--------------------------------|
--------------------------------|
--5----7----12--8--5----5----7--|
--------------------------------|

Chorus

-------------------------------------------------------|
-------------------------------------------------------|
---------8--7--5(x12)--5--7-8----1(x8)--3//13--3(x16)--| x2
--1(x14)-----------------------------------------------|

Verse

---------------------------------------------------------------|
---------------------------------------------------------------|
--8-8----8-8--8-7--5-5----5-5--5-3----10-10----10-10--10-8--3--|
---------------------------------------------------------------|

------------------|
------------------|
--3--5--7--10-----|
------------------|

Chorus

-------------------------------------------------------|
-------------------------------------------------------|
---------8--7--5(x12)--5--7-8----1(x8)--1//13--3(x16)--| x2
--1(x14)-----------------------------------------------|

Bridge

----------------3--3--3-5-7-5--2--2--3-5-3-2--0--0--2-3-2-0--|
--3--3--3-5-7-3----------------------------------------------|
-------------------------------------------------------------|
-------------------------------------------------------------|

Chorus

-------------------------------------------------------|
-------------------------------------------------------|
---------8--7--5(x12)--5--7-8----1(x8)--1//13--3(x16)--| x2
--1(x14)-----------------------------------------------|

Ending

-------------------------------------|
-------------------------------------|
--5----7----12--8--5----5----7-------|
----------------------------------1--|
Suggest correction
Give kudos to tab author, rate the tab!
1 2 3 4 5
comments
print report bad tab
guest
You may want to rate the tab now too:
select rating
Wanna post a correction for this tab? Suggest correction