Oops, an error
Loading. Please wait.

We Are Young Tab

version 1
version 1

Whole song

Interactive

by Fun
68,699 views 3 this week
1 commentread comment
1 2 3 4 5
accurate
x 5
add to favorites
launch autoscroll
font size
0
reset
how to read this tab
guitar tuner
Tab Pro tools
  • play this tab
  • loop segment
  • change instrument
  • show fretboard
  • metronome
×
Best way to learn
"We Are Young"
Autoscroll
slow
fast
+/-
esc
set tempo
stop
Contributor
Difficulty
novice
Artist: Fun
Song: We Are Young
Tabbed by: Travis F.

first tab ever. And on an ipod. So don't hate.

Symbols:  ~ = let note ring out
          / = slide up

e |-------------------------------------------------|
B |-------------------------------------------------|
G |-10-10~------------------------------------------|
D |-------------10~---7-7-10-7----------------------|
A |------------------------------------10--8--8~----|
E |-------------------------------------------------|

e |-------------------------------------------------|
B |-------------------------------------------------|
G |-10-10~---5--7~----------------------------------|
D |-------------------------------------------------|
A |-------------------------------------------------|
E |-------------------------------------------------|

e |--------------------6~------------6~-------------|
B |-------------------------------------------------|
G |----7-7-7-7-7--5-7---------7-5-7~----------------|
D |-------------------------------------------------|
A |-------------------------------------------------|
E |-------------------------------------------------|

e |----------------------------------------------------|
B |----------------------------------------------------|
G |-7-5--/14~-----14--12-14-12-12~---------------------|
D |----------------------------------------------------|
A |----------------------------------------------------|
E |----------------------------------------------------|
comments
print report bad tab
1 comment total.
0 reply
metalchick199 wrote on April 18 2012, 03:59 pm

Thanks! I've been looking everywhere for an actual tab! Haha ;)

I want to post or [tab]
guest
You may want to rate the tab now too:
select rating
Please do not post tabs as comments. Select "correction" instead!