Oops, an error
Loading. Please wait.

Loco Chorus tab

version 1
version 1

Whole song

1,253 views 3 this week
1 commentread comment
1 2 3 4 5
2 more votes to show rating
add to favorites
×
Save as Personal and add changes to this tab that will be seen only by you. Learn more ›
×
You can save this tab as Personal to edit and correct it or add notes. All changes will be seen only by you. Learn more »
launch autoscroll
font size
0
reset
how to read this tab
guitar tuner
edit
Autoscroll
slow
fast
+/-
esc
set tempo
stop
#----------------------------------PLEASE NOTE--------------------------------#
#This file is the author's own work and represents their interpretation of the#
#song. You may only use this file for private study, scholarship, or research.#
#-----------------------------------------------------------------------------#
#-- File created with Instab - http://www.pconline.com/~smcarey/instab.html --#
#-----------------------------------------------------------------------------#

Author/Artist: Fun Lovin Criminals
Title: Loco Chorus
Transcribed by: Matthew
Email: Everyth1ng_zen@hotmail.com

So I think that this is basically the chorus to the song,
I'm not sure it it's in the right place, try moving the riff
up and down the neck if it doesn't sound right, but it
did to me.

---/15-13---------------------------------------------------------------------|
----------15-13-13-------15-13-12b--------------------------------------------|
-------------------15-13------------------------------------------------------|
------------------------------------------------------------------------------|
------------------------------------------------------------------------------|
------------------------------------------------------------------------------|


---/15-13---------------------------------------------------------------------|
----------15-13-13-------15b--------------------------------------------------|
-------------------15-13------------------------------------------------------|
------------------------------------------------------------------------------|
------------------------------------------------------------------------------|
------------------------------------------------------------------------------|
 play with much treble on distortion

            
            
Suggest correction
Creating personal tab
Creating personal tab
You can edit any tab online and save it as your Personal.

You can edit, replace or remove any tab part or add personal notes – all changes will be seen only by you.

Personal tabs can be accessed anytime from any device, even offline.
Learn more »
Give kudos to tab author, rate the tab!
1 2 3 4 5
comments
print report bad tab
1 comment total.
0 reply
gowkstane 10 Jun 20, 2014 02:03 PM

--15b17-15-13----------------15-14-13-------------------------------------|
--------------15----15-13-12----------------------------------------------|
--------------------------------------------------------------------------|
--------------------------------------------------------------------------|
--------------------------------------------------------------------------|
--------------------------------------------------------------------------|

I think this is more accurate.

guest
Wanna post a correction for this tab? Suggest correction