Oops, an error
Loading. Please wait.

Angustia No No tab

version 1
version 1

Whole song

35 views 1 this week
no commentswrite comment
1 2 3 4 5
3 more votes to show rating
add to favorites
×
Save as Personal and add changes to this tab that will be seen only by you. Learn more ›
×
You can save this tab as Personal to edit and correct it or add notes. All changes will be seen only by you. Learn more »
launch autoscroll
font size
0
reset
how to read this tab
guitar tuner
edit
Autoscroll
slow
fast
+/-
esc
set tempo
stop
RIFF 1
    F#'             g'           E5     F#5   A5    F#5
e|-------------------------------------------------------------|
B|-------------------------------------------------------------|
G|-------------------------------9--9-9-11-11-14-14-11--11-11--|
D|-------------------------------9--9-9-11-11-14-14-11--11-11--|
A|--9-9-9-9-9-9-9-9-10-10-10-10--7--7-7-9--9--12-12-9---9--9---|
E|-------------------------------------------------------------|


RIFF 2
    F#'     C#'      b'      a'      E5     F#5   A5    F#5
e|----------------------------------------------------------------|
B|----------------------------------------------------------------|
G|-----------------------------------9--9-9-11-11-14-14-11--11-11-|
D|----------11-11-11-9-9-9-9-7-7-7---9--9-9-11-11-14-14-11--11-11-|
A|--9-9-9-9--------------------------7--7-7-9--9--12-12-9---9--9--|
E|----------------------------------------------------------------|


RIFF 3
   F#'     C#'      e'       b'      E5     F#5   A5    F#5
e|----------------------------------------------------------------|
B|----------------------------------------------------------------|
G|-----------------------------------9--9-9-11-11-14-14-11--11-11-|
D|---------11-11-11-14-14-14-9-9-9---9--9-9-11-11-14-14-11--11-11-|
A|-9-9-9-9---------------------------7--7-7-9--9--12-12-9---9--9--|
E|----------------------------------------------------------------|


SOBRE RIFF 1
  F#'
What are you feel?  what are you feel?
     g'                                     E5 F#5 A5 F#5 x2
what are you feel?  En decir angustia no no

SOBRE RIFF 2
     F#'            C#'
And now! see your dreams
           b'                 a'                  E5 F#5 A5 F#5 x2
see your dreams come true, diciendo angustia no no

SOBRE RIFF 3
  F#'                C#'
What are you feel?  what are you feel?
  e'                      b'                E5 F#5 A5 F#5 x2
what are you feel?  En decir angustia no no

              A
Y vos como estas?
   C         D          A
decime como te sentis ahora
        C          D             A
se que vos y yo aqui no estamos solos
           C             D          A
que el secreto de ser feliz, es gritar a viva voz
         C           D         A
hoy, si hoy, a la angustia no no!


Es un tema muy facil,(aunque no lo parezca)igual les puse
los acordes encima de las letras para que se guien un poco mejor...
cualquier queja, duda, puteada o cualquier boludez, escribanme
en la direccion que aparece arriba

            
            
Suggest correction
Creating personal tab
Creating personal tab
You can edit any tab online and save it as your Personal.

You can edit, replace or remove any tab part or add personal notes – all changes will be seen only by you.

Personal tabs can be accessed anytime from any device, even offline.
Learn more »
Give kudos to tab author, rate the tab!
1 2 3 4 5
comments
print report bad tab
guest
Wanna post a correction for this tab? Suggest correction