Oops, an error
Loading. Please wait.

Bad Influence tab

version 2
version 2

Whole song

26 views 1 this week
no commentswrite comment
1 2 3 4 5
3 more votes to show rating
add to favorites
×
Save as Personal and add changes to this tab that will be seen only by you. Learn more ›
×
You can save this tab as Personal to edit and correct it or add notes. All changes will be seen only by you. Learn more »
launch autoscroll
font size
0
reset
how to read this tab
guitar tuner
edit
Autoscroll
slow
fast
+/-
esc
set tempo
stop
Bad Influence
Fun People
Anesthesia
Trabscripto por: Pabloss666@


 Intro
1|--0--0--0-0-1--1--1-1-0-0--0-0-3--3-3-3-3--|
2|--1--1--1-1-1--1--1-1-1-1--1-1-0--0-0-0-0--|
3|--2--2--2-2-2--2--2-2-0-0--0-0-0--0-0-0-0--|
4|--2--2--2-2-3--3--3-3-2-2--2-2-0--0-0-0-0--|
5|--0--0--0-0-3--3--3-3-3-3--3-3-2--2-2-2-2--|
6|------------1--1--1-1----------3--3-3-3-3--|
    Am        F         C        G

 Final Intro
1|--0--0--0-0-1--1--1-1-0-0--0-0-3--|
2|--1--1--1-1-1--1--1-1-1-1--1-1-0--|
3|--2--2--2-2-2--2--2-2-0-0--0-0-0--|
4|--2--2--2-2-3--3--3-3-2-2--2-2-0--|
5|--0--0--0-0-3--3--3-3-3-3--3-3-2--|
6|------------1--1--1-1----------3--|
    Am        F         C        G


La base del tema es igual al Intro, pero un poco mas rapido


Am        F
Disappear my days
C        G
Disappear my lights
Am         F      C
Disappear my smile disappear
G
My love
Am            F        C        G
I don't wanna be victim of a Bad Influence
Am       F         C             G
Because I wanna run to the hills to see
Am        F                    C        G
With the sun the born of our flower, my love.
Am            F        C        G
I don't wanna be victim of a Bad Influence
Am   F         C    G
Bad World, Bad, Bad Influence


 Solo
1|--5--------------------------------|
2|--8b9----5-6-8-6-5-5-----5--5-6----|
3|--------------------------------5--|
4|-----------------------------------|
5|-----------------------------------|
6|-----------------------------------|

1|----------------------------------|
2|--6--5-6--6-5------5--------------|Esta es la
3|--------------7--5---7-5-4-7-5-4--|parte rapida
4|----------------------------------|
5|----------------------------------|
6|----------------------------------|

1|------------------------------|
2|------------------------------|
3|------------------------------|
4|---7-5-4----------------------|
5|---------5--7----7-5----------|
6|---------------------8-7-8-5--|


Segunda base
1|---------------------------------|
2|---------------------------------|
3|---------------------------------|
4|--7--7-7-7-7-7-7-3--3-3-3-3-3-3--|
5|--7--7-7-7-7-7-7-3--3-3-3-3-3-3--|
6|--5--5-5-5-5-5-5-1--1-1-1-1-1-1--|
    A5             F5

1|----------------------------------|
2|----------------------------------|
3|---5--5-5-5-5-5-5-----------------|
4|---5--5-5-5-5-5-5-5--5-5-5-5-5-5--|
5|---3--3-3-3-3-3-3-5--5-5-5-5-5-5--|
6|------------------3--3-3-3-3-3-3--|
     C5             G5


La segunda base, con distorsion y rapido es con quintas

A5            F5       C5       G5
I don't wanna be victim of a Bad Influence
A5       F5        C5            G5
Because I wanna run to the hills to see
A5        F5                   C5       G5
With the sun the born of our flower, my love.
A5            F5       C5       G5
I don't wanna be victim of a Bad Influence
A5   F5        C5   G5
Bad World, Bad, Bad Influence

Este tema es mi primer transcripcion y aunque hace muchos
años que la saque nunca la vi completa
en la web asi que ahora me tome el tiempo de subirla.
Va dedicada a mi amor Paola y mis hijos Aza y Taby
Suggest correction
Creating personal tab
Creating personal tab
You can edit any tab online and save it as your Personal.

You can edit, replace or remove any tab part or add personal notes – all changes will be seen only by you.

Personal tabs can be accessed anytime from any device, even offline.
Learn more »
Give kudos to tab author, rate the tab!
1 2 3 4 5
comments
print report bad tab
guest
Wanna post a correction for this tab? Suggest correction