Oops, an error
Loading. Please wait.

Mantiene Tu Espiritu Con Humor bass

version 1
version 1

Whole song

35 views 1 this week
no commentswrite comment
1 2 3 4 5
3 more votes to show rating
add to favorites
×
Save as Personal and add changes to this tab that will be seen only by you. Learn more ›
×
You can save this tab as Personal to edit and correct it or add notes. All changes will be seen only by you. Learn more »
launch autoscroll
font size
0
reset
guitar tuner
edit
Autoscroll
slow
fast
+/-
esc
set tempo
stop
Intro:

G----------------|
D----------------|
A----------------|
E--0-0--0-0-0-0--|x4

Cuando empieza el grito:

G----------------------|
D----------------------|
A----------------------|
E--0-0-0-0-0-0-......--|

Verso:

G-------------------------|
D--------------------7----|
A----------------7-8---8--|
E--0-0--0-0-0-0-----------|x4

Imposible es rescatar, volver a vivir ciertos momentos
que si por un desengaño juntaste mucha rabia
que si por un desengaño juntaste mucha bronca


G-------------------------------------------------------|
D-------------------------------------------------------|
A-------------------------1-1--3-3-3-3-3-3-3-3-3-3-3-3--|
E--1--1-1-1-1-1-1--4-4-4--------------------------------|X4

Pero vamos que nada es para tanto y tanto no lo es todo
Con firmeza y ante todo mantiene tu espíritu con humor
(Silbido)

Luego:

G-------------------------|
D--------------------7----|
A----------------7-8---8--|
E--0-0--0-0-0-0-----------|x4


G-------------|
D-------------|
A-------------|
E--0-0-0-0-0--|x4

Vence tus tabúes deja atrás tu timidez
si en verdad lo necesitas ve a buscar lo que te gusta
No te entregues, note mientas
que nada es para tanto y tanto no lo es todo


G-------------------------|
D--------------------7----|
A----------------7-8---8--|
E--0-0--0-0-0-0-----------|x4

Con firmeza y ante todo mantiene tu espíritu con humor

Final:

G-----|
D-----|
A--7--|
E-----|

            
            
Suggest correction
Creating personal tab
Creating personal tab
You can edit any tab online and save it as your Personal.

You can edit, replace or remove any tab part or add personal notes – all changes will be seen only by you.

Personal tabs can be accessed anytime from any device, even offline.
Learn more »
Give kudos to tab author, rate the tab!
1 2 3 4 5
comments
print report bad tab
guest
Wanna post a correction for this tab? Suggest correction